Song name
# A B C D E F G H I J K L M N O P Q R S T U V W X Y Z

Tanzwut - Tanzwut tab

          Tanzwut
        - Tanzwut -
    Labyrinth der Sinne

      tabbed by PelzR


Tuning: Standard E (E A D G B E)

This is just a basic tab for this song with additional bagpipe notes.
This time no song structure, it should be easy to figure that out by yourself.
For some help I wrote time markers behind every riff which can help you to find out
when the riff comes the first time and how it sounds on the record.


Tempo should be around 200 bpm


------
Riffs:
------

Riff 1 (0:06 minute)

   E E E E E E Q
E|---------------|
B|---------------|
G|-----R--R------|
D|---------------|
A|-2-2---2---2-3-|
E|-0-0---0---0-1-|
   . .   .   .
  

Riff 2 (0:20 minute)

   E E E E E E Q  
E|---------------|
B|---------------|
G|-----R---R-----|
D|-2-2---2---2-3-|
A|-0-0---0---0-1-|
E|---------------|
    . .   .   .       


Riff 3 (0:38 minute)

   E E E E E E Q
E|---------------|
B|---------------|
G|---------------|
D|-----R---------|
A|---7---8-7-5-7-|
E|-0-------------|
   h h   h h h h


Riff 4 (0:40 minute)

    E E E E E E E E    E E E E Q Q
E|-------------------|-------------|
B|-------------------|-------------|
G|o-----------------o|-------------|
D|o-----------------o|-------------|
A|--5-7---7-----8\7--|-5/7-----8-5-|
E|--3/5-5-5-5-5-6\5--|-3/5-5-5-6-3-|
        .   . .            . .
    

Riff 5 (2:41 minute)

   E E E E E E E E   E E E E Q Q
E|-----------------|-------------|
B|-----------------|-------------|
G|-----------------|-------------|
D|-----------R---R-|-----------R-|
A|-0-0-0-0-0---0---|-0-0-0-0-0---|
E|-----------------|-------------|
   .   . .           .   . .




Bagpipe Lead 1 (0:15 minute)

     E  Q  E  E  E  E 2x   E  Q  E  E  E  E 2x
E|---------------------|--17-17-18-17-15-17--|
B|--17-17-18-17-15-17--|--17-17-18-17-15-17--|
G|o-------------------o|o-------------------o| the second bar 
D|o-------------------o|o-------------------o| contains the 
A|---------------------|---------------------| additional
E|---------------------|---------------------| second voice


Bagpipe Lead 2 (0:40 minute)
    
     E  Q  E  Q  E  E    E  E  E  E  Q  Q    E  Q  E  Q  Q |
E|--------------------|-15-14-------------|----------------|
B|-----17-15-17-15-17-|-------17-15-17-17-|----17-15-17-17-|
G|o-14----------------|-------------------|-14-------------|
D|o-------------------|-------------------|----------------|
A|--------------------|-------------------|----------------|
E|--------------------|-------------------|----------------|

   S  S  E  E  E  Q  Q 2x
|-----------------------|
|-15-17-15---------(17)-| on the second
|----------17-16-14-14-o| repeat, replaces 
|----------------------o| the last note
|-----------------------| with the one I
|-----------------------| put in brackets



     E  S  S  E  S  S  E  S  S  Q    S  S  E  E  E  Q  Q    E  S  S  E  S  S  E  S  S  Q |
E|--------------------------------|----------------------|-------------------------------|
B|--17-20-19-17-20-19-17-20-19-17-|-15-17-15----15-17-17-|-17-20-19-17-20-19-17-20-19-17-|
G|o-------------------------------|----------17----------|-------------------------------|
D|o-------------------------------|----------------------|-------------------------------|
A|--------------------------------|----------------------|-------------------------------|
E|--------------------------------|----------------------|-------------------------------|

   S  S  E  E  E  Q  Q 2x
|-----------------------|
|-15-17-15---------(17)-| on the first
|----------17-16-14-14-o| repeat, replace
|----------------------o| the last note
|-----------------------| with the one I
|-----------------------| put in brackets




Description:
------------
h (bottom) -> harmonic
. (bottom) -> palm mute
Q (top)    -> quarter note
E (top)    -> eighth note
S (top)    -> sixth note
R (top)    -> rest
o
o          -> repeat
Tap to rate this tab
# A B C D E F G H I J K L M N O P Q R S T U V W X Y Z