Song name
# A B C D E F G H I J K L M N O P Q R S T U V W X Y Z

Tanzwut - Zaubern tab

          Tanzwut
        - Zaubern -
      Ihr wolltet Spass

      tabbed by PelzR


Tuning: Standard E (E A D G B E)

I'm quite sure what tuning Tanzwut has on this album... I think it is played on a 
seven-string guitar.
But since I'm only own a six-string guitar and most of the song doesn't have much lower 
notes I tabbed
it in this Standard E. Another choice would be Drop D but the Intro/Pre-Verse is easier 
to play on standard.


Description:
------------
p  -> pull-off
x  -> dead note
.  -> palm mute
R  -> rest


Riffs:
------

Intro

E|---------------------|---------------------|-----------------------|-------------------|
B|---------------------|---------------------|-----------------------|-------------------|
G|---------------------|---------------------|-----------------------|-------------R-----|
D|---------------------|---------------------|-----------------------|-------------------|
A|-2----7p5--------7-8-|-2----7p5--------5-8-|-2----7p5--------7-8-8-|-2----7p5------5-5-|
E|-0-00-----00-000-5-6-|-0-00-----00-000-3-6-|-0-00-----00-000-5-6-6-|-0-00-----00---5-3-|
     ..     .. ...         ..     .. ...         ..     .. ...           ..     ..


Pre-Verse

E|-----------------------|---------------------|
B|-----------------------|---------------------|
G|-----------------------|---------------------|
D|-----------------------|---------------------|
A|-2----7p5--------7-8-8-|-2----7p5--------5-8-|
E|-0-00-----00-000-5-6-6-|-0-00-----00-000-3-6-|
     ..     .. ...           ..     .. ...


Verse

E|---------------|
B|---------------|
G|---------------| play as often as
D|---------------| needed
A|-00-0-0-00-0-0-|
E|---------------|
   .. . . .. . .

E|---|---|---|---|
B|---|---|---|---| halfway through
G|-2-|-4-|-5-|-7-| the verse there
D|-x-|-x-|-x-|-x-| is a additional
A|-0-|-2-|-3-|-5-| guitar playing
E|---|---|---|---| this two times


Chorus 1

E|-----------------|-----------------|-----------------|-----------------|
B|-----------------|-----------------|-----------------|-----------------|
G|-----------------|-----------------|-----------------|-2-2-2-2-2-2-2-2-|
D|-5-5-5-5-5-5-5-5-|-0-0-0-0-0-0-0-0-|-3-3-3-3-3-3-3-3-|-2-2-2-2-2-2-2-2-|
A|-5-5-5-5-5-5-5-5-|-0-0-0-0-0-0-0-0-|-3-3-3-3-3-3-3-3-|-0-0-0-0-0-0-0-0-|
E|-3-3-3-3-3-3-3-3-|-----------------|-1-1-1-1-1-1-1-1-|-----------------|

E|-----------------|-----------------|-----------------|-----------------|
B|-----------------|-----------------|-----------------|-----------------|
G|-----------------|-----------------|-3-3-3-3-3-3-3-3-|-2-2-2-2-2-2-2-2-|
D|-5-5-5-5-5-5-5-5-|-0-0-0-0-0-0-0-0-|-3-3-3-3-3-3-3-3-|-2-2-2-2-2-2-2-2-|
A|-5-5-5-5-5-5-5-5-|-0-0-0-0-0-0-0-0-|-1-1-1-1-1-1-1-1-|-0-0-0-0-0-0-0-0-|
E|-3-3-3-3-3-3-3-3-|-----------------|-----------------|-----------------|
                                                                   . . .

Interlude

E|-----------------|
B|-----------------|
G|-----------------|
D|-2-2-2-2-2-2-2-2-|
A|-0-0-0-0-0-0-0-0-|
E|-----------------|
   . . . . . . . .


Chorus 2

E|-----------------|-----------------|-----------------|-----------------|
B|-----------------|-----------------|-----------------|-----------------|
G|-2-2-2-2-2-2-2-2-|-----------------|-----------------|-4-4-4-4-4-4-4-4-|
D|-2-2-2-2-2-2-2-2-|-2-2-2-2-2-2-2-2-|-5-5-5-5-5-5-5-5-|-4-4-4-4-4-4-4-4-|
A|-0-0-0-0-0-0-0-0-|-2-2-2-2-2-2-2-2-|-5-5-5-5-5-5-5-5-|-2-2-2-2-2-2-2-2-|
E|-----------------|-0-0-0-0-0-0-0-0-|-3-3-3-3-3-3-3-3-|-----------------|

E|-----------------|-----------------|-----------------|-----------------|
B|-----------------|-----------------|-----------------|-----------------|
G|-2-2-2-2-2-2-2-2-|-----------------|-5-5-5-5-5-5-5-5-|-4-4-4-4-4-4-4-4-|
D|-2-2-2-2-2-2-2-2-|-2-2-2-2-2-2-2-2-|-5-5-5-5-5-5-5-5-|-4-4-4-4-4-4-4-4-|
A|-0-0-0-0-0-0-0-0-|-2-2-2-2-2-2-2-2-|-3-3-3-3-3-3-3-3-|-2-2-2-2-2-2-2-2-|
E|-----------------|-0-0-0-0-0-0-0-0-|-----------------|-----------------|
                                                                   . . .

Outro

E|---|
B|---|
G|-2-| let ring
D|-2-|
A|-0-|
E|---|


Bagpipe

E|------------------|-12----12-14-|-15----17-|-14----12-10-|
B|-10--10-12-10--10-|-------------|----------|-------------|
G|------------------|-------------|----------|-------------|
D|------------------|-------------|----------|-------------|
A|------------------|-------------|----------|-------------|
E|------------------|-------------|----------|-------------|

E|------------------|-12----12-14-|-15-|-14-|
B|-10--10-12-10--10-|-------------|----|----|
G|------------------|-------------|----|----|
D|------------------|-------------|----|----|
A|------------------|-------------|----|----|
E|------------------|-------------|----|----|


Song Structure:
---------------
Intro     1x
Pre-Verse 2x
Verse     --
Chorus 1  1x
Pre-Verse 2x
Verse     --
Chorus 1  1x
Break
Interlude 8x
Chorus 2  5x
Outro     1x
Tap to rate this tab
# A B C D E F G H I J K L M N O P Q R S T U V W X Y Z