Song name
# A B C D E F G H I J K L M N O P Q R S T U V W X Y Z

Tanzwut - Eisenmann tab

          Tanzwut
       - Eisenmann -
          Tanzwut

      tabbed by PelzR


Tuning: Standard E (E A D G B E)

Another song from their debut album "Tanzwut". Basically it is a (very) free interpretation of
Black Sabbath's classic "Iron Man". Except the main riff (played differently) it 
is a whole another song.


Description:
------------
. -> palm mute
R -> rest
h -> hammer-on
p -> pull-off


Riffs:
------

Main Riff 
                                    
E|----------------|-----------------------|
B|----------------|-----------------------|
G|----------------|-----------------------|
D|-2--5--5-7-7-10-|-10-9-10-9-10--5-5-7-7-|
A|-2--5--5-7-7-10-|-10-9-10-9-10--5-5-7-7-|
E|-0--3--3-5-5--8-|--8-7--8-7--8--3-3-5-5-|
    

Verse

E|-----------------|---------------|
B|-----------------|---------------| 
G|-----R------R----|-----R---------|
D|-----------------|---------------|
A|-2-2----2-2----2-|-2-2----2-2--2-|
E|-0-0----0-0----0-|-0-0----0-0--0-|
   . .    . .    .   . .    . .  .


Chorus

E|-----------------------------|-----------------------------|
B|-----------------------------|-----------------------------|
G|-----------------------------|-2--2-2--2-2-2-4--4-4--4-4-4-|
D|-2--2-2--2-2-2-5--5-5--5-5-5-|-2--2-2--2-2-2-4--4-4--4-4-4-|
A|-2--2-2--2-2-2-5--5-5--5-5-5-|-0--0-0--0-0-0-2--2-2--2-2-2-|
E|-0--0-0--0-0-0-3--3-3--3-3-3-|-----------------------------|


Bridge

E|---------------------------------|
B|---------------------------------|
G|---------------------------------|
D|---------------------------------|
A|-2-2-3h5-2-2-3p2-2-2-2h3-2-2-3p2-|
E|---------------------------------|
   . .     . .     . .     . .


Song Structure:
---------------
Intro
Main Riff 2x
Verse     8x
Main Riff 1x
Verse     3x
Chorus    4x
Break
Chorus    4x
Main Riff 2x
Verse     4x
Chorus    4x
Bridge    6x
Chorus    4x
Tap to rate this tab
 
# A B C D E F G H I J K L M N O P Q R S T U V W X Y Z