Song name
# A B C D E F G H I J K L M N O P Q R S T U V W X Y Z

Tanzwut - Verrueckt tab

          Tanzwut
        - Verrückt -
          Tanzwut

      tabbed by PelzR


Tuning: Standard E (E A D G B E)

A easier song from their debut album called "Tanzwut". It contains only one guitar riff
but I have tabbed the flute-like instrument too.


Description:
------------
h -> hammer-on
p -> pull-off


Riffs:
------

Main Riff (Part A)
                                    
E|-----------------|-----------------|
B|-----------------|-----------------|
G|-2--2---2-5--5-5-|-----------------|
D|-2--2-5-2-5--5-5-|-3--3-2-3-5--5-5-|
A|-0--0-5-0-3--3-3-|-3--3-2-3-5--5-5-|
E|------3----------|-1--1-0-1-3--3-3-|
    
Main Riff (Part B)
  
E|-----------------|------------|
B|-----------------|------------|
G|-2--2---2-5--5-5-|------------|
D|-2--2-5-2-5--5-5-|-3--3-2-3-2-|
A|-0--0-5-0-3--3-3-|-3--3-2-3-2-|
E|------3----------|-1--1-0-1-0-|


Flute (only basic notes)

E|-----------------|-------------------------|
B|-----------------|-------------------------| towards the end
G|-9--9h12p9-------|----9-10--10h12-10h12----| of this song
D|-----------12-10-|-12-------------------12-| (about 2:51 minutes) 
A|-----------------|-------------------------| this is played an 
E|-----------------|-------------------------| octave higher


Song Structure:
---------------

Main Riff A 3x (at 0:20)
Main Riff B 1x
Main Riff A 3x
Main Riff B 1x
Main Riff A 3x
Main Riff B 1x

Main Riff A 3x (at 1:24)
Main Riff B 1x
Main Riff A 3x
Main Riff B 1x

Main Riff A 3x (at 3:13)
Main Riff B 1x
Main Riff A 3x
Main Riff B 1x
Main Riff A 1x
Main Riff B 1x
Tap to rate this tab
# A B C D E F G H I J K L M N O P Q R S T U V W X Y Z