Song name
# A B C D E F G H I J K L M N O P Q R S T U V W X Y Z

Tape - The Wild Palms tab

First Tab ever! Took me like 5 minutes while listening to the song to get this, still a work
in progress, any help is appreciated.  Cheers and jam on.


Guitar I (played throughout song)

E|-------------------------|
B|-------------------------|
G|----2-2-5----------------|
D|-------------3-3-3--5-5--|
A|-------------------------|
E|-------------------------|

Guitar II Chorus


E|--5-3-1-3-1----1-----5-3-1-3-1----10---8--|
B|-------------3---3--------------3---------|
G|------------------------------------------|
D|------------------------------------------|
A|------------------------------------------|
E|------------------------------------------|


E|-----5-3-1-3-1-----1--3-----5-3-1-3-1----1-|
B|----------------3--------3------------3----|
G|-------------------------------------------|
D|-------------------------------------------|
A|-------------------------------------------|
E|-------------------------------------------|


E|-----17-15-13-15-13----13------17-15-13-15-13-----22-21--|
B|--------------------15----15------------------15---------|
G|---------------------------------------------------------|
D|---------------------------------------------------------|
A|---------------------------------------------------------|
E|---------------------------------------------------------|


E|------17-15-13-15-13------13--15------17-15-13-15-13------13----12----10--|
B|----------------------15----------15------------------15------------------|
G|--------------------------------------------------------------------------|
D|--------------------------------------------------------------------------|
A|--------------------------------------------------------------------------|
E|--------------------------------------------------------------------------|


All I know at the moment but should be enough for you to enjoy!

Tabbed by Tryp(email caelumborn@yahoo.com)

Band Tape's Myspace: http://www.myspace.com/tapesthlm
Tap to rate this tab
# A B C D E F G H I J K L M N O P Q R S T U V W X Y Z