Song name
# A B C D E F G H I J K L M N O P Q R S T U V W X Y Z

Tape - Companions tab

Standard Tuning (EADGBE)

Another tab from the band Tape, love listening to this song when I'm driving in the mountains.
Very Easy song to play, I think I'm missing a few notes here and there but most of the 
song is correct! Enjoy!

VERSE                                                                     x3

E|---8-------------------8-------------------8---------------------------|
B|-------8---8---6---6-------8---8---6---6-------8---8---6---6---8---6---|
G|-----------------------------------------------------------------------|
D|-----------------------------------------------------------------------|
A|-----------------------------------------------------------------------|
E|-----------------------------------------------------------------------|



CHORUS (0:50)

E|---------------------------------------------------------------------------|
B|---10-------10-------11-------11-------10-------10-------11-------11-------|
G|--------0--------0--------0--------0--------0--------0--------0--------0---|
D|---------------------------------------------------------------------------|
A|---------------------------------------------------------------------------|
E|---------------------------------------------------------------------------|



E|---------------------------------------------------------------------------|
B|---10-------10-------11-------11-------10-------10-------8-------8---------|
G|--------0--------0--------0--------0--------0--------0-------0-------0-----|
D|---------------------------------------------------------------------------|
A|---------------------------------------------------------------------------|
E|---------------------------------------------------------------------------|



E|-------------------------------------------------------------------------|
B|---10-------10-------11-------11-------10-------10-------8-------8-------|
G|--------0--------0--------0--------0--------0--------0-------0-------0---|
D|-------------------------------------------------------------------------|
A|-------------------------------------------------------------------------|
E|-------------------------------------------------------------------------|



E|-------------------------------------------------------------------------|
B|---10-------10-------11-------11-------10-------10-------8-------8-------|
G|--------0--------0--------0--------0--------0--------0-------0-------0---|
D|-------------------------------------------------------------------------|
A|-------------------------------------------------------------------------|
E|-------------------------------------------------------------------------|


VERSE                                                                       x3

E|---8-------------------8-------------------8---------------------------|
B|-------8---8---6---6-------8---8---6---6-------8---8---6---6---8---6---|
G|-----------------------------------------------------------------------|
D|-----------------------------------------------------------------------|
A|-----------------------------------------------------------------------|
E|-----------------------------------------------------------------------|

CHORUS  2                                                                   x6

E|-------------------------------------------------------------------------|
B|---10-------10-------11-------11-------10-------10-------8-------8-------|
G|--------0--------0--------0--------0--------0--------0-------0-------0---|
D|-------------------------------------------------------------------------|
A|-------------------------------------------------------------------------|
E|-------------------------------------------------------------------------|


VERSE                                                                       x3


E|---8-------------------8-------------------8---------------------------|
B|-------8---8---6---6-------8---8---6---6-------8---8---6---6---8---6---|
G|-----------------------------------------------------------------------|
D|-----------------------------------------------------------------------|
A|-----------------------------------------------------------------------|
E|-----------------------------------------------------------------------|


OUTRO

E|---------------------------|
B|---8---6---8---6---8---6---|
G|---------------------------|
D|---------------------------|
A|---------------------------|
E|---------------------------|
Tap to rate this tab
# A B C D E F G H I J K L M N O P Q R S T U V W X Y Z