Song name
# A B C D E F G H I J K L M N O P Q R S T U V W X Y Z

Tapes N Tapes - Jakovs Suite tab

Initially...

---------------------|
---------------------|
-9--13--14--16-------|
-x--x---x---x--------|
-7--11--12--14-------|
-x--x---x---x--------|


Then the part that sounds different...

-------------------------|
---------------12--------|
-9---13---14---x---------|
-x---x----x----9---------|
-7---11---12---x---------|
-x---x----x----x---------|

this is what I hear for the groovey riff after the proper intro.  Please tell me if i'm 
off: Elitegoose@hotmail.com
Tap to rate this tab
# A B C D E F G H I J K L M N O P Q R S T U V W X Y Z