Song name
# A B C D E F G H I J K L M N O P Q R S T U V W X Y Z

Tapioca Fugitive - Dude This Is Shit tab

Intro
e---------------------------------------------------------------------|
B---------------------------------------------------------------------|
G---------------------------------------------------------------------|
D---------------------------------------------------------------------|
A----------1-1-1-1----------------------------1-1-1-1-----------------|
E-3?3-3-3-----------3-3-3-3--1-1-1-1--3-3-3-3---------5-5-5-5-5-5-5-5-|

Verse/Chorus
e-------------------------------------|
B-------------------------------------|
G-------------------------------------|
D--5-5-5-5-7-7-7-7-9-9-9-9-5-5-5-5----|
A--5-5-5-5-7-7-7-7-9-9-9-9-5-5-5-5----|
E--3-3-3-3-5-5-5-5-7-7-7-7-3-3-3-3----|
Tap to rate this tab
# A B C D E F G H I J K L M N O P Q R S T U V W X Y Z