Song name
# A B C D E F G H I J K L M N O P Q R S T U V W X Y Z

Taproot - Wherever I Stand tab

Taproot: Wherever I Stand

Transcribed by: Andrew Zara (disturbedfreak0520@yahoo.com)

Date last modified: October 1, 2008

PLEASE DO NOT COPY THIS TAB TO ANOTHER SITE
WITHOUT AUTHORS' PERMISSION. THANK YOU.

Tuning: Drop D (D,A,D,G,B,E)

Riff 1 (light distortion)
E|---------0~----------0--0~-|
B|-----5h6-6~------5h6-6--5~-|
G|---------5~----------5--5~-|
D|---------------------------|
A|---------------------------|
D|-0-----------0-------------|

Riff 1a
E|--------------------------------------------|
B|--------------------------------------------|
G|-9/1010101012-12-12-12/14-14-14-14\12-12\10-|
D|-x/x-x-x-x/x--x--x--x-/x--x--x--x-\x--x-\x--|
A|-7/8-8-8-8/10-10-10-10/12-12-12-12\10-10\8--|
D|--------------------------------------------|

Play Riff 1
Play Riff 1a (w/ distortion)

Riff 2   "Wherever I stand, you're the one..."
E|-------------------------------------------------------------------------|
B|-------------------------------------------------------------------------|
G|---------9/10-10-----------9/10-10-----------9/10-10---------------------|
D|-0-0-x-x-x/x--x--x-x-12-12-x/x--x--x-x-10-10-x/x--x--9-9-x-x-10-10-9-9-0-|
A|-0-0-x-x-7/8--8--x-x-10-10-7/8--8--x-x-8--8--7/8--8--7-7-x-x-8--8--7-7-0-|
D|-0-0-x-x---------x-x-10-10---------x-x-8--8----------7-7-x-x-8--8--7-7-0-|

Play Riff 1
Play Riff 1a
Play Riff 1
Play Riff 1a (w/ distortion)
Play Riff 2

Riff 3   "No matter where, no matter how..."
E|--------------------------|
B|--------------------------|
G|--------------------------|
D|-10-(x16)-5-(x16)-0-(x16)-|
A|-8--------5-------0-------|
D|-8--------5-------0-------|

Riff 3a
E|--------------------------------------------|
B|--------------------------------------------|
G|---------9-9/10-10-----------14-14\12-12\10-|
D|-0-0-x-x-x-x/x--x--0-0-0-x-x-x--x-\x--x-\x--|
A|-0-0-x-x-7-7/8--8--0-0-0-x-x-12-12\10-10\8--|
D|-0-0-x-x-----------0-0-0-x-x----------------|

Play Riff 3
Play Riff 2
Play Riff 1

Riff 4
E|-------|
B|-------|
G|-------|
D|-0-0-0-|
A|-0-0-0-|
D|-0-0-0-|


Tap to rate this tab
# A B C D E F G H I J K L M N O P Q R S T U V W X Y Z