Song name
# A B C D E F G H I J K L M N O P Q R S T U V W X Y Z

Taproot - Day By Day tab

#----------------------------------PLEASE NOTE---------------------------------#
#This file is the author's own work and represents their interpretation of the #
#song. You may only use this file for private study, scholarship, or research. #
#------------------------------------------------------------------------------##


Gtr I (Eb Ab Db Gb Bb Eb) - 'Taproot - Day By Day'

 4/4        Intro, Verse
  Gtr I
|--------------------------------------------------------|
|--------------------------------------------------------|
|--------------------------------------------------------|
|---------------------------------------------------9----|
|-----9---9-----9---9-----9-----9---9-----9---9-----9----|
|-6-6---6---6-6---6---6-6-7-6-6---6---6-6---6---6-6------|

    Chorus  I didn't put the timing but it's easy to figure out.
|----------------------------------|
|----------------------------------|
|----------------------------------|
|----------------------------------|
|-8-8-8-8---4-4---6-6---8-8-8-8----|
|-6-6-6-6---2-2---4-4---6-6-6-6----|

    Bridge   Again no timing but AGAIN it's easy to figure out.
|-----------------------------|
|-----------------------------|
|-----------------------------|
|-----------------------------|
|-8-8-8-8-8-8--4-4-4-4-4-4----| Great Song!
|-6-6-6-6-6-6--2-2-2-2-2-2----|



***************************************************************************************
* Generated using Power Tab Editor by Brad Larsen - http://powertab.guitarnetwork.org *
***************************************************************************************
Tap to rate this tab
 
# A B C D E F G H I J K L M N O P Q R S T U V W X Y Z