Song name
# A B C D E F G H I J K L M N O P Q R S T U V W X Y Z

Taproot - Stolage tab

This is Mike Dewolf's guitar part

Verse and Intro:
A-0-0-------------------------------------------------------------------------------------------|
E-6-6-5-5-5-5-5-5-10-10-10-12-12-12-12-16-16-16-14-14-14-14-14-10-10-10-10-10-12-12-12-12-12-12-|
C-----------------------------------------------------------------------------------------------|
G-----------------------------------------------------------------------------------------------|
D-----------------------------------------------------------------------------------------------|
A-----------------------------------------------------------------------------------------------|

A-0-0-0-0-0-0-0-0----------0--0--0--0-----------0--0--0--0--0-----------------0--0--0--0--0--0--|
E-6-6-5-5-5-5-5-5-10-10-10-12-12-12-12-16-16-16-14-14-14-14-14-10-10-10-10-10-12-12-12-12-12-12-|
C-----------------------------------------------------------------------------------------------|
G-----------------------------------------------------------------------------------------------|
D-----------------------------------------------------------------------------------------------|
A-----------------------------------------------------------------------------------------------|

Chorus:
A--------------------------------------------------------|
E--------------------------------------------------------|
C----------------------------------------------4-4-4-4-4-|
G------------------------------------3-3-3-3-3-----------|
D------------------------------------3-3-3-3-3-2-2-2-2-2-|
A-0-8-8-7-7--0-0-5-5-7-7-0-0-3-3-5-5-1-1-1-1-1-----------|

A------------------------------------------------------------------|
E------------------------------------------------------------------|
C----------------------------------------------5-5-5-5-5-5-4-4-4-4-|
G------------------------------------3-3-3-3-3---------------------|
D------------------------------------3-3-3-3-3-3-3-3-3-3-3-2-2-2-2-|
A-0-8-8-7-7--0-0-5-5-7-7-0-0-3-3-5-5-1-1-1-1-1---------------------|

Chorus
Verse
Chorus 2 times
Breakdown 1: 2 times
A----------------------------------------|
E----------------------------------------|
C-11-11-11-11-11-11-11-12-12-12-12-12-12-|
G----------------------------------------|
D-9--9--9--9--9--9--9--10--10--10--10-10-|
A----------------------------------------|

Breakdown 2: 2 Times
A-------------------------------------------------------------|
E-------------------------------------------------------------|
C-14-14-14-14-14-14-15-15-15-12-12-12-12-10-10-10-10-10-10-10-|
G-------------------------------------------------------------|
D-------------------------------------------------------------|
A-------------------------------------------------------------|

Verse
Chorus 2 times
Breakdown 1
Breakdown 2

Outro:
A----------------|
E----------------|
C-10-10-10-8-8-8-| Reapet 3 times
G----------------|
D----------------|
A----------------|

A----------------|
E----------------|
C-8-8-8-6-6-6----| Reapet 3 times
G----------------|
D----------------|
A----------------|

A----------------|
E----------------|
C-6-6-6-4-4-4----|  Reapet 3 times
G----------------|
D----------------|
A----------------|

Outro 4 times
Breakdown 2

A----------------------------|
E----------------------------|
C----------------------------|
G----------------------------| Reapet 2 times
D----------------------------|
A-1--0-------1-------1----0--|
Tap to rate this tab
# A B C D E F G H I J K L M N O P Q R S T U V W X Y Z