Song name
# A B C D E F G H I J K L M N O P Q R S T U V W X Y Z

Taproot - Lost In The Woods tab

Help us improve GuitareTab! Take a short survey!
taproot - lost in the woods

bass tab

by : doky 2006
taquilleros_de_sudamerica_maroyu_el_grupo_tropical_del_momento@hotmail.com

5-stringed bass
G D A E B

break

|-------------------------------|
|-------------------------------|
|----3-----3-------3--\11111111-|
|-4-----4-----3-4---------------|
|-------------------------------|

verso

|------------|--------------|------------|---------------------|
|------------|--------------|------------|---------------------|
|------------|--------------|------------|---------------------|
|-4/11\8-888-|-4/11\8 8\3-3-|-4/11\8-888-|-4/11\8-888\66666666-|
|------------|--------------|------------|---------------------|

pre-coro

|------------------|------------------|
|------------------|------------------|
|------------------|------------------|
|-4-4--------------|-4-4----1-1111111-|
|----4-4-1-1111111-|----1-1-----------|


|------------:------|
|------------:------|
|------------:------|
|-44-------66:------|
|----4-444---:6-666-|

pre-coro 2

|------------------|
|------------------|
|------------------|
|-4-4----1-1111111-|
|----1-1-----------|

break 2

|---------------|
|---------------|
|----3-----3----|
|-4-----4-----3-|
|---------------|

middle

|-------------------------------------------------|
|-------------------------------------------------|
|-------------------------------------------------|
|-----------------3333333333333333------------3---|
|-1111111111111111----------------444444444444----|

fin

|------------|---------------|
|------------|---------------|
|------------|---------------|   x2
|-4/11\8-888-|-4/11\8-8\3-33-|
|------------|---------------|

|-------------------|
|-------------------|
|-------------------|
|-4/11\8-888\6-6----|
|-------------------|

mando unos calurosos saludos a mi grupo de cumbia de colegio los Trueno del Milenio, 
nunca tocamos ninguna cancion igual me tareado harto. doky 2006
Related for Lost In The Woods tab