Guitaretab - guitar tabs
Song name
# A B C D E F G H I J K L M N O P Q R S T U V W X Y Z

Taproot - Violent Seas tab

Here's what I have up to the bridge. I'll update later

----------------------------------------------------------------------------
			     Violent Seas - Taproot
----------------------------------------------------------------------------
Tabbed by: Token716

Tuning: Dropped C


-=VERSE=-
                    3x            
D||------------------|---------------|
A||------------------|---------------|
F||--------10--------|---------10----|
C||--10-12-----------|---7---8-------|
G||------------------|-8-------------|
C||------------------|---------------|

-=BUILD=-
                                  2x                                 
D||--------------------------------|------------------------------------|
A||--------------------------------|------------------------------------|
F||--------------------------------|------------------------------------|
C||-5-5--5-7-7--7-8-8--8-10-10-8-8-|-5-5-5-5-7-7-7-7-8-8-8-8-10-10-8-8--|
G||-5-5--5-7-7--7-8-8--8-10-10-8-8-|-5-5-5-5-7-7-7-7-8-8-8-8-10-10-8-8--|
C||-5-5--5-7-7--7-8-8--8-10-10-8-8-|-5-5-5-5-7-7-7-7-8-8-8-8-10-10-8-8--|

-=PRE CHORUS=-

|-------------------------------------------------------------|
|-------------------------------------------------------------|
|-------------------------------------------------------------|
|-3--3--3-3-3-8--8-8-8-8-8-8-8--0--0--0-0-0-5--5-5-5-5-5-5-5--|
|-3--3--3-3-3-8--8-8-8-8-8-8-8--0--0--0-0-0-5--5-5-5-5-5-5-5--|
|-3--3--3-3-3-8--8-8-8-8-8-8-8--0--0--0-0-0-5--5-5-5-5-5-5-5--|


|------------------------------------------------------------------|
|------------------------------------------------------------------|
|------------------------------------------------------------------|
|-3--3--3-3-3-8--8-8-8-8-8-8-8--10--10--10-10-10-5--5-5-5-5-5-5-5--|
|-3--3--3-3-3-8--8-8-8-8-8-8-8--10--10--10-10-10-5--5-5-5-5-5-5-5--|
|-3--3--3-3-3-8--8-8-8-8-8-8-8--10--10--10-10-10-5--5-5-5-5-5-5-5--|

-=CHORUS=-
[ Tab from: http://www.guitaretab.com/t/taproot/69339.html ]
|--------------------------------------------------------------------|
|--------------------------------------------------------------------|
|--------------------------------------------------------------------|
|-12----12-12-12-8--8-8-8-8-8-8-8-10--10--10-10-10-5--5-5-5-5-5-5-5--|
|-12----12-12-12-8--8-8-8-8-8-8-8-10--10--10-10-10-5--5-5-5-5-5-5-5--|
|-12----12-12-12-8--8-8-8-8-8-8-8-10--10--10-10-10-5--5-5-5-5-5-5-5--|


|-------------------------------------------------------------|
|-------------------------------------------------------------|
|-------------------------------------------------------------|
|-12--12--12-12-12-8--8-8-8-8-8-8-8-10--10--10-10-10-5--------|
|-12--12--12-12-12-8--8-8-8-8-8-8-8-10--10--10-10-10-5--------|
|-12--12--12-12-12-8--8-8-8-8-8-8-8-10--10--10-10-10-5--------|

-=VERSE=-

-=BUILD=-

-=PRE CHORUS=-

-=CHORUS=-

-=BRIDGE=-	
					                     
|----------------------------------------------------------------
|----------------------------------------------------------------
|-11--11--11-11-11-12--12-12-12-12-12-12-12-10--10--10-10-10-10--
|--x---x---x--x--x--x---x--x--x--x--x--x--x--x---x---x--x--x--x--
|--9---9---9--9--9-10--10-10-10-10-10-10-10--8---8---8--8--8--8--
|----------------------------------------------------------------

--------------------|
--------------------|
-14-14-12-12-11-11--|
--x--x--x--x--x--x--|
-12-12-10-10--9--9--|
--------------------|

							            
|----------------------------------------------------------------
|----------------------------------------------------------------
|-11--11--11-11-11-14--14-14-14-14-14-14-14-10--10--10-10-10-10--
|--x---x---x--x--x--x---x--x--x--x--x--x--x--x---x---x--x--x--x--
|--9---9---9--9--9-12--12-12-12-12-12-12-12--8---8---8--8--8--8--
|----------------------------------------------------------------

--------------------|
--------------------|
-14-14-12-12-11-11--|
--x--x--x--x--x--x--|
-12-12-10-10--9--9--|
--------------------|
Related for Violent Seas tab
×
Violent Seas