Song name
# A B C D E F G H I J K L M N O P Q R S T U V W X Y Z

Taproot - Whats Left tab

Song: Blue-Sky Research/What\'s Left
Album: Blue-Sky Research
Tuning: (C,G,C,F,A,D)

~ = Let Ring
h = Hammer
p = Pull Off
* = Palm Mute

(x2) Intro
D|----------|------------------|----------|----------|
A|----------|------------------|----------|----------|
F|----------|------------------|----------|----------|
C|-----2s4~-|-----2s4~--5p4----|-----2s4~-|----------|
G|---0------|---0-----------5--|---0------|---0-7s5~-|
C|-0--------|-0----------------|-0--------|-0--------|


(x2)
D|--------------------|--------------------|
A|-7777s1010-8-7------|-7777s1010-8-7-5555-|
F|-xxxxx-x-x-x-x-4444-|-xxxxx-x-x-x-x-xxxx-|
C|-4444s-7-7-5-4-xxxx-|-4444s-7-7-5-4-2222-|
G|---------------2222-|--------------------|
C|--------------------|--------------------|

(x2)
D|----------|------------------|----------|----------|
A|----------|------------------|----------|----------|
F|----------|------------------|----------|----------|
C|-----2s4~-|-----2s4~--5p4----|-----2s4~-|----------|
G|---0------|---0-----------5--|---0------|---0-7s5~-|
C|-0--------|-0----------------|-0--------|-0--------|


(x4) So you want more affection
D|--------------------------|
A|--------------------------|
F|--------------------------|
C|-12-12-12-12-13-0-0-12-12-|
G|-12-12-12-12-13-0-0-12-12-|
C|-12-12-12-12-13-0-0-12-12-|

(x1) The snow it bleeds a sky so grey
D|-----------|
A|-----------|
F|-----------|
C|-666-55-33-|
G|-666-55-33-|
C|-666-55-33-|

(x2)
D|--------------------------|
A|--------------------------|
F|--------------------------|
C|-12-12-12-12-13-0-0-12-12-|
G|-12-12-12-12-13-0-0-12-12-|
C|-12-12-12-12-13-0-0-12-12-|

(x1) Of memories what\'s lost not gained
D|-----------|
A|-----------|
F|-----------|
C|-666-55-33-|
G|-666-55-33-|
C|-666-55-33-|

(x2)
D|--------------------------|
A|--------------------------|
F|--------------------------|
C|-12-12-12-12-13-0-0-12-12-|
G|-12-12-12-12-13-0-0-12-12-|
C|-12-12-12-12-13-0-0-12-12-|

(x1) Reliving awful yesterdays
D|-----------|
A|-----------|
F|-----------|
C|-666-55-33-|
G|-666-55-33-|
C|-666-55-33-|

(x2) We can\'t see the other side
D|-------|-------|-------|-----|-----|-----|-----|-----|
A|-------|-------|-------|-----|-----|-----|-----|-----|
F|-------|-------|-------|-----|-----|-----|-----|-----|
C|-------|-------|-------|-----|-111-|-111-|-111-|-111-|
G|-------|-------|-------|-----|-111-|-111-|-111-|-111-|
C|-3s2-2-|-3s2-2-|-3s2-2-|-3s2-|-111-|-111-|-111-|-111-|


(x1) No longer blind
D|---------|
A|-11-10-8-|
F|--x--x-x-|
C|--8--7-5-|
G|---------|
C|---------|

(x1) Paint a portrait to be seen
D|-------|-------|
A|-6-3---|-------|
F|-8-5---|-5-----|
C|-8-5-5-|-5-3-4-|
G|-6-3-5-|-3-3-4-|
C|-----5-|---3-4-|

(x1)
D|--------------------------|
A|--------------------------|
F|-**-**-**-**-**-*-*-**-**-|
C|-12-12-12-12-13-0-0-12-12-|
G|-12-12-12-12-13-0-0-12-12-|
C|-12-12-12-12-13-0-0-12-12-|


(x4) So you plead for attention
D|--------------------------|
A|--------------------------|
F|--------------------------|
C|-12-12-12-12-13-0-0-12-12-|
G|-12-12-12-12-13-0-0-12-12-|
C|-12-12-12-12-13-0-0-12-12-|

(x1) The stroke of time just hides the same
D|-----------|
A|-----------|
F|-----------|
C|-666-55-33-|
G|-666-55-33-|
C|-666-55-33-|

(x2)
D|--------------------------|
A|--------------------------|
F|--------------------------|
C|-12-12-12-12-13-0-0-12-12-|
G|-12-12-12-12-13-0-0-12-12-|
C|-12-12-12-12-13-0-0-12-12-|

(x1) The choke of lost despise our taste
D|-----------|
A|-----------|
F|-----------|
C|-666-55-33-|
G|-666-55-33-|
C|-666-55-33-|

(x2) And our souls honest side
D|-------|-------|-------|-----|-----|-----|-----|-----|
A|-------|-------|-------|-----|-----|-----|-----|-----|
F|-------|-------|-------|-----|-----|-----|-----|-----|
C|-------|-------|-------|-----|-111-|-111-|-111-|-111-|
G|-------|-------|-------|-----|-111-|-111-|-111-|-111-|
C|-3s2-2-|-3s2-2-|-3s2-2-|-3s2-|-111-|-111-|-111-|-111-|


(x1) No longer blind
D|---------|
A|-11-10-8-|
F|--x--x-x-|
C|--8--7-5-|
G|---------|
C|---------|

(x1) Paint a portrait to be seen
D|-------|---------|
A|-6-3---|---------|
F|-8-5---|-5-------|
C|-8-5-5-|-5-3-4-5-|
G|-6-3-5-|-3-3-4-5-|
C|-----5-|---3-4-5-|

(x1) Take the present as a gift
D|-------------|-------|
A|-6-3-11-10-8-|-------|
F|-8-5--x--x-x-|-5-----|
C|-8-5--8--7-5-|-5-3-4-|
G|-6-3---------|-3-3-4-|
C|-------------|---3-4-|

(x4) What\'s left
D|-------------|
A|-------------|
F|-------------|
C|-00112232211-|
G|-00112232211-|
C|-00112232211-|

(x1)
D|--------|
A|--------|
F|--------|
C|-----11-|
G|-----11-|
C|-3s2-11-|

(x1) No longer blind
D|---------|
A|-11-10-8-|
F|--x--x-x-|
C|--8--7-5-|
G|---------|
C|---------|

(x1) Paint a portrait to be seen
D|-------|---------|
A|-6-3---|---------|
F|-8-5---|-5-------|
C|-8-5-5-|-5-3-4-5-|
G|-6-3-5-|-3-3-4-5-|
C|-----5-|---3-4-5-|

(x1) Take the present as a gift
D|-------------|-------|
A|-6-3-11-10-8-|-------|
F|-8-5--x--x-x-|-5-----|
C|-8-5--8--7-5-|-5-3-4-|
G|-6-3---------|-3-3-4-|
C|-------------|---3-4-|

(x4) What\'s left
D|-------------|
A|-------------|
F|-------------|
C|-00112232211-|
G|-00112232211-|
C|-00112232211-|

(x1) What\'s left
D|--------|
A|--------|
F|--------|
C|-----11-|
G|-----11-|
C|-3s2-11-|
Tap to rate this tab
 
# A B C D E F G H I J K L M N O P Q R S T U V W X Y Z