Song name
# A B C D E F G H I J K L M N O P Q R S T U V W X Y Z

Tar - Lady Steps tab

Help us improve GuitareTab! Take a short survey!
Artist: Tar
Song: Lady Steps
Album: Clincher EP
Composer: Tar


Intro/Later Bridge Thing -

------------------------------|
------------------------------|
------------------------------|
9--9-9-9-11-5--5-5-5-5-5-5-5--|
9--9-9-9-11-5--5-5-5-5-5-5-5--|
7--7-7-7-09-3--3-3-3-3-3-3-3--|
------------------------------| X 3

------------------------------|
------------------------------|
------------------------------|
9--9-9-9-10-5-----------------|
9--9-9-9-10-5-----------------|
7--7-7-7-9--3-----------------|
------------------------------|

The Verse

------------------------------|
------------------------------|
------------------------------|
2--2-2-5-2-4--4-4-4-4-4-4-4-4-|
2--2-2-5-2-4--4-4-4-4-4-4-4-4-|
0--0-0-3-0-2--2-2-2-2-2-2-2-2-|
------------------------------|

The "Chorus"

-----------------|
-----------------|
-----------------|
10-9--10-7--10-7-|
10-9--10-7--10-7-|
-8-7---7-5---8-5-|
-----------------| Watch out for the part where they hold the D for a little longer
Related for Lady Steps tab