Song name
# A B C D E F G H I J K L M N O P Q R S T U V W X Y Z

Tara Perdida - Feia tab

Artist: Tara Perdida
Song: Feia
Tabbed by: DCobain
-------------------------------------------

PARA MAIS TABS PORTUGUESAS DE PUNK:
http://punkportugal.googlepages.com/

 
   G   Em  C   D
e|--3---0---0---2-|
B|--3---0---1---3-|
G|--0---0---0---2-|
D|--0---2---2---0-|
A|--2---2---3-----|
E|--3-------------|


> Intro  ACOUSTIC

G-Em-C-D

e|-------------------|
B|--3--1--0----------|
G|-----------2-0-----|
D|-------------------|
A|-------------------|
E|-------------------|

Guitar 1 (ACOUSTIC)
G-Em-C-D

Guitar 2

e|------------|  |-----------------|
B|--------3---|  |-3--1--0---------|
G|-----4------|6x|---------2-0-----|
D|--5---------|  |-----------------|
A|------------|  |-----------------|
E|------------|  |-----------------|


Verse

Guitar 1 (ACOUSTIC)
G-Em-C-D

Guitar 2

e|---------------------------------------------------|
B|---------------------------------------------------|
G|---5/2----2/5--5/7----------------5~---7~----------|
D|------------------------5~---2~---5~---7~----------|
A|------------------------5~---2~---3~-3/5~----------|
E|------------------------3~---0~--------------------|


Chorus (Refrão)

e|-------------------------------|
B|-------------------------------|
G|--------------5*---7*----------|  * Repetir
D|----5*---2*---5*---7*----------|
A|----5*---2*---3*---5*----------|
E|----3*---0*--------------------|

e|------------|  
B|--------3---|  
G|-----4------|6x
D|--5---------|  
A|------------|  
E|------------|  




Verse 2 

e|-------------------------------|
B|-------------------------------|
G|--------------5*---7*----------|  * Repetir
D|----5*---2*---5*---7*----------|
A|----5*---2*---3*---5*----------|
E|----3*---0*--------------------|

qualquer correção para:
diogo.lourenco@hotmail.com


PARA MAIS TABS PORTUGUESAS DE PUNK:
http://punkportugal.googlepages.com/
Tap to rate this tab
 
# A B C D E F G H I J K L M N O P Q R S T U V W X Y Z