Song name
# A B C D E F G H I J K L M N O P Q R S T U V W X Y Z

Tara Perdida - Batata Frita tab

Tara Perdida- Batata Frita

e|--------------------------------------------------------------|
B|--------------------------------------------------------------|
G|--------------------------------------------------------------| 5x
D|-------------7--5----7-------------5--7-----------------------|
A|-------------7--5----7-------------5--7-----------------------|
E|-5-5-5-5-5-5----------5-5-5-5-5-5-----------------------------|


e|--------------------------------------------------------------|
B|--------------------------------------------------------------|
G|--------------------------------------------------------------| 2x
D|-------------5--7-------------------7--------------5----------|
A|-------------5--7---2---------------7--------------5----------|
E|-5-5-5-5-5-5--------0--0-0-0-0-0-0-----5-5-5-5-5-5------------|

e|--------|  
B|--------|  
G|--------|
D|--------|  
A|--7-----|  
E|--5-----|



e|------------------------|   |--------------------|
B|------------------------|   |--------------------|
G|------------------------|2x |--------------------|
D|------------------------|   |--------------------|
A|------------------------|   |--------------------|
E|-5-5-5-5-5-5-5-5--------|   |-0-0-0-0-0-0-0-0----|



e|------------------------|   |--------------------|
B|------------------------|   |--------------------|
G|------------------------|2x |--------------------|
D|------------------------|   |--------------------|
A|------------------------|   |--------------------|
E|-5-5-5-5-5-5-5-5--------|   |-0-0-0-0-0-0-0-0----|

e|--------|  
B|--------|  
G|--------|
D|--------|  
A|--7-----|  
E|--5-----|

PARA MAIS TABS PORTUGUESAS DE PUNK:

http://punkportugal.googlepages.com/

Tap to rate this tab
# A B C D E F G H I J K L M N O P Q R S T U V W X Y Z