Song name
# A B C D E F G H I J K L M N O P Q R S T U V W X Y Z

Tarentel - Two Sides Of Myself Part 1 tab

Hey guys, this is a very basic version of this song. i haven't tabbed it out in its
entirety because its basically a couple of repeated parts for the entire thing. what's here
is a sample of each part played and you shouldn't have much trouble piecing it together. 
This song's great for just chill in out. Hope you enjoy

Tuning: standard (eBGDAE)

-------------Main part------------------

|--------0-------4~~~-----------------|
|--------2---2----2~~~----------------|      Repeats Forever
|-------------------------------------|
|-------------------------------------|
|--0~~~-------------------------------|
|-------------------------------------|


------------Lead Part-----------     gets tagged on eventually
                                                     VVV
|------7/9\4~~~---------------------------------------------------------|
|------------------/9\5-5~~------4~~~--/9\5\2~~~~-----2-0-2~~~----------|
|-----------------------------------------------------------------------|
|-----------^^^^Repeat first part 2X------------------------------------|
|-----------------------------------------------------------------------|
|-----------------------------------------------------------------------|



---------The Ending-------------     the end part is some mixture of these notes, just listen

                                        End With This vvv
|------------9------------------------9-----------------0~~------|
|-------------------------9-----------------------------2~~------|
|------11-9----9-11-9------------11-9--9-11-9-8---------2~~------|
|----------------------------------------------------------------|
|----------------------------------------------------------------|
|----------------------------------------------------------------|

http://tarentel.com
Tap to rate this tab
 
# A B C D E F G H I J K L M N O P Q R S T U V W X Y Z