Song name
# A B C D E F G H I J K L M N O P Q R S T U V W X Y Z

Tarkio - Devils Elbow tab

Tarkio
"Devil's Elbow"
Written by Colin Meloy

Tabbed by Michael Hutchinson
Copyright 2006 Michael Hutchinson
Free for distribution on other sites only if you ask me first
Pennywiselives@hotmail.com

Intro
e---------------------------------------------------------------------|
b---------0------0---------------------0------------------------------|
g-----4------4-----4---4-----------4-----4---------4------------------|
d---2---2------2-----2-----------2---2-----2--------------------------|
a-4----------------------------4-----------------2--------------------|
E---------------------------------------------------------------------|

e----------------------------------------------------------------------|
b---------0-----0----------------------0-------------------------------|
g-----4-----4-----4---2------------4-----4-------4---------------------|
d---2---2-----2-----2------------2---2-----2---------------------------|
a-0----------------------------0---------------2-----------------------|
E----------------------------------------------------------------------|

Verse Strum
e----------------------------------------------------------------------|
b-0---0---0---0--------------------------------------------------------|
g-4---4---4---4--------------------------------------------------------|
d-2---x---2---x--------------------------------------------------------|
a-4---2---0---2--------------------------------------------------------|
E----------------------------------------------------------------------|

Into Chorus     E
e---------------0---0--------------------------------------------------|
b-0-------2-----0---0--------------------------------------------------|
g-4---4---2-----1---2--------------------------------------------------|
d-2---2---4-----2---2--------------------------------------------------|
a-0---x---4-----2---0--------------------------------------------------|
E-----4---2-----0------------------------------------------------------|
Tap to rate this tab
# A B C D E F G H I J K L M N O P Q R S T U V W X Y Z