Guitaretab - guitar tabs
Song name
# A B C D E F G H I J K L M N O P Q R S T U V W X Y Z

Tarkio - Keeping Me Awake tab

Intro (after banjo) - E E/Eb A A
Verse - E E/Eb A A
Chorus - F#m B E E/Eb A

Intro - E E/Eb A Ax2

E E/Eb
Summer, it came
A A
like a light across the highlands
E E/Eb A A
and we laid it down.
E E/Eb
You wore a dress
A A
made of light from the islands
E E/Eb A A
and we sent postcards home.

E E/Eb A A x2

E E/Eb
In dying light
A A
this was not to be forgotten
E E/Eb A A
Ďcause we are the chosen few.
E E/Eb A A
Into the sea with the touch of softest cotton
E E/Eb A A
Beneath this angel moon

F#m B
Its been keeping me awake
E E/Eb A A
Leaving this behind was my first mistake

F#m  B
and Iím not so strong
E E/Eb A A
to be satisfied by all the things Iíve done
F#m
and the things it threw away.

E---------------------------------------|
B---------------------------------------|
G---------------------------------------|
D-4p2-4p2-4p2---------------------------|
A-------------4p2-----------------------|
E---------------------------------------|

E E/Eb A A x2
[ Tab from: http://www.guitaretab.com/t/tarkio/85107.html ]
E E/Eb
You wrote your name
A A
as we lay among the heather.
E E/Eb A A
What you left behind
E E/Eb A A
Following paths that would lead us both together
E E/Eb A A
Let us lose our minds

F#m B
Its been keeping me awake
E E/Eb A A
Leaving this behind was my first mistake

F#m  B
and Iím not so strong
E E/Eb A A
to be satisfied by all the things Iíve done
F#m
and the things it threw away.

E---------------------------------------|
B---------------------------------------|
G---------------------------------------|
D-4p2-4p2-4p2---------------------------|
A-------------4p2-----------------------|
E---------------------------------------|

E E/Eb A A x4

E E/Eb
Summer, it fell
A A
and it coursed across the highlands
E E/Eb A A
and so quickly gone.
E E/Eb A A
Your faded dress for years now tied away and silent
E E/Eb A A
and the nightís late lullaby

F#m B
Its been keeping me awake
E E/Eb A A
Leaving this behind was my first mistake

F#m  B
and Iím not so strong
E E/Eb A A
to be satisfied by all the things Iíve done
F#m
and the things it threw away.

E E/Eb A A
by all the things it threw away.
E E/Eb A A
By all the things it threw away
E E/Eb A A
By all the things it threw away
E E/Eb A A
By all the things it threw away

End on E
Related for Keeping Me Awake tab