Song name
# A B C D E F G H I J K L M N O P Q R S T U V W X Y Z

Tarot - Bleeding Dust tab

-------------------------------------------------------------------------------
			 Bleeding Dust - Tarot
-------------------------------------------------------------------------------
Tabbed by: metalmonkey147
Email:

Tuning: Drop C

 Im still working on the solo its gonna take me a little bit

|---------------------------------------------------------------------------|
|---------------------------------------------------------------------------|
|---------------------------------------------------------------------------|
|-12\-----------------------------------------------------------------------|
|-12\---8-6-------------6-5-------------5-3---------------------------------|
|-12\-------0-0---0-0-0-----0-0---0-0-0-----0-0---0-0-0-1h3--3--3p1p0-------|
            . .   . . .     . .   . . .     . .   . . .

|---------------------------------------------------------------------------|
|---------------------------------------------------------------------------|
|---------------------------------------------------------------------------|
|-------------------------------------------------3-----3-----3-------------|
|-8-6-------------6-5-------------5-3-------------1-----1-----1-------------|
|-----0-0---0-0-0-----0-0---0-0-0-----0-0---0-0-0-----0-----0---------------|
      . .   . . .     . .   . . .     . .   . . .     .     .

|---------------------------------------------------------------------------|
|---------------------------------------------------------------------------|
|---------------------------------------------------------------------------|
|---------------------------------------------------------------------------|
|-8-6-------------6-5-------------5-3---------------------------------------|
|-----0-0---0-0-0-----0-0---0-0-0-----0-0---0-0-0-1h3--3--3p1p0-------------|
      . .   . . .     . .   . . .     . .   . . .

|---------------------------------------------------------------------------|
|---------------------------------------------------------------------------|
|---------------------------------------------------------------------------|
|-------------------------------------------------3-----3-----3-------------|
|-8-6-------------6-5-------------5-3-------------1-----1-----1-------------|
|-----0-0---0-0-0-----0-0---0-0-0-----0-0---0-0-0-----0-----0---------------|
      . .   . . .     . .   . . .     . .   . . .     .     .

|---------------------------------------------------------------------------|
|---------------------------------------------------------------------------|
|---------------------------------------------------------------------------|
|-8\7---------8\7-----------------8\7---------8\7---------------------------|
|-6\5---------6\5-----------------6\5---------6\5---------------------------|
|-----0-0---0-----0-0---0-0-0-0-0-----0-0---0-----0-0---0-0-0-0-0-----------|
      . .   .     . .   . . . . .     . .   .     . .   . . . . .

|---------------------------------------------------------------------------|
|---------------------------------------------------------------------------|
|---------------------------------------------------------------------------|
|-8\7---------8\7-----------------8\7---------8\7---------------------------|
|-6\5---------6\5-----------------6\5---------6\5---------------------------|
|-----0-0---0-----0-0---0-0-0-0-0-----0-0---0-----0h1---3-3-3-1-0-----------|
      . .   .     . .   . . . . .     . .   .

|---------------------------------------------------------------------------|
|---------------------------------------------------------------------------|
|---------------------------------------------------------------------------|
|-8\7---------8\7-----------------8\7---------8\7---------------------------|
|-6\5---------6\5-----------------6\5---------6\5---------------------------|
|-----0-0---0-----0-0---0-0-0-0-0-----0-0---0-----0-0---0-0-0-0-0-----------|
      . .   .     . .   . . . . .     . .   .     . .   . . . . .

|---------------------------------------------------------------------------|
|---------------------------------------------------------------------------|
|---------------------------------------------------------------------------|
|-8\7---------8\7-----------------8\7---------8\7---------------------------|
|-6\5---------6\5-----------------6\5---------6\5---------------------------|
|-----0-0---0-----0-0---0-0-0-0-0-----0-0---0-----0h1---3-3-3-1-0-----------|
      . .   .     . .   . . . . .     . .   . 

|-------------------------------------------------|
|-------------------------------------------------|
|-------------------------------------------------|
|---------------5-------------------------2-------|
|-5----3----1---3----6-----5----3----1----0-------|
|-5----3----1--------6-----5----3----1------------|

|---------------------------------------------------------------------------|
|---------------------------------------------------------------------------|
|---------------------------------------------------------------------------|
|-8\7---------8\7-----------------8\7---------8\7---------------------------|
|-6\5---------6\5-----------------6\5---------6\5---------------------------|
|-----0-0---0-----0-0---0-0-0-0-0-----0-0---0-----0-0---0-0-0-0-0-----------|
      . .   .     . .   . . . . .     . .   .     . .   . . . . .

|---------------------------------------------------------------------------|
|---------------------------------------------------------------------------|
|---------------------------------------------------------------------------|
|-8\7---------8\7-----------------8\7---------8\7---------------------------|
|-6\5---------6\5-----------------6\5---------6\5---------------------------|
|-----0-0---0-----0-0---0-0-0-0-0-----0-0---0-----0h1---3-3-3-1-0-----------|
      . .   .     . .   . . . . .     . .   .

|---------------------------------------------------------------------------|
|---------------------------------------------------------------------------|
|---------------------------------------------------------------------------|
|-8\7---------8\7-----------------8\7---------8\7---------------------------|
|-6\5---------6\5-----------------6\5---------6\5---------------------------|
|-----0-0---0-----0-0---0-0-0-0-0-----0-0---0-----0-0---0-0-0-0-0-----------|
      . .   .     . .   . . . . .     . .   .     . .   . . . . .

|---------------------------------------------------------------------------|
|---------------------------------------------------------------------------|
|---------------------------------------------------------------------------|
|-8\7---------8\7-----------------8\7---------8\7---------------------------|
|-6\5---------6\5-----------------6\5---------6\5---------------------------|
|-----0-0---0-----0-0---0-0-0-0-0-----0-0---0-----0h1---3-3-3-1-0-----------|
      . .   .     . .   . . . . .     . .   . 

|-------------------------------------------------|
|-------------------------------------------------|
|-------------------------------------------------|
|---------------5-------------------------2-------|
|-5----3----1---3----6-----5----3----1----0-------|
|-5----3----1--------6-----5----3----1------------|

|---------------------------------------------------------------------------|
|---------------------------------------------------------------------------|
|---------------------------------------------------------------------------|
|---------------------------------------------------------------------------|
|-8-6-------------6-5-------------5-3---------------------------------------|
|-----0-0---0-0-0-----0-0---0-0-0-----0-0---0-0-0-1h3--3--3p1p0-------------|
      . .   . . .     . .   . . .     . .   . . .

|---------------------------------------------------------------------------|
|---------------------------------------------------------------------------|
|---------------------------------------------------------------------------|
|-------------------------------------------------3-----3-------------------|
|-8-6-------------6-5-------------5-3-------------1-----1-----1-------------|
|-----0-0---0-0-0-----0-0---0-0-0-----0-0---0-0-0-----0-----0-1-------------|
      . .   . . .     . .   . . .     . .   . . .     .     .

|---------------------------------------------------------------------------|
|---------------------------------------------------------------------------|
|---------------------------------------------------------------------------|
|---------------------------------(PAUSE)-----------------------------------|
|---------------------------------------------------------------------------|
|---------------------------------------------------------------------------|

 (1:31)
|---------------------------------------------------------------------------|
|---------------------------------------------------------------------------|
|---------------------------------------------------------------------------|
|-8\7---------8\7-----------------8\7---------8\7---------------------------|
|-6\5---------6\5-----------------6\5---------6\5---------------------------|
|-----0-0---0-----0-0---0-0-0-0-0-----0-0---0-----0-0---0-0-0-0-0-----------|
      . .   .     . .   . . . . .     . .   .     . .   . . . . .

|---------------------------------------------------------------------------|
|---------------------------------------------------------------------------|
|---------------------------------------------------------------------------|
|-8\7---------8\7-----------------8\7---------8\7---------------------------|
|-6\5---------6\5-----------------6\5---------6\5---------------------------|
|-----0-0---0-----0-0---0-0-0-0-0-----0-0---0-----0h1---3-3-3-1-0-----------|
      . .   .     . .   . . . . .     . .   . 

|-------------------------------------------------|
|-------------------------------------------------|
|-------------------------------------------------|
|---------------5-------------------------2-------|
|-5----3----1---3----6-----5----3----1----0-------|
|-5----3----1--------6-----5----3----1------------|

|---------------------------------------------------------------------------|
|---------------------------------------------------------------------------|
|---------------------------------------------------------------------------|
|---------------------------------------------------------------------------|
|-8-6-------------6-5-------------5-3---------------------------------------|
|-----0-0---0-0-0-----0-0---0-0-0-----0-0---0-0-0-1h3--3--3p1p0-------------|
      . .   . . .     . .   . . .     . .   . . .

|---------------------------------------------------------------------------|
|---------------------------------------------------------------------------|
|---------------------------------------------------------------------------|
|-------------------------------------------------3-----3-----3-------------|
|-8-6-------------6-5-------------5-3-------------1-----1-----1-------------|
|-----0-0---0-0-0-----0-0---0-0-0-----0-0---0-0-0-----0-----0---------------|
      . .   . . .     . .   . . .     . .   . . .     .     .

|---------------------------------------------------------------------------|
|---------------------------------------------------------------------------|
|---------------------------------------------------------------------------|
|---------------------------------------------------------------------------|
|-8-6-------------6-5-------------5-3---------------------------------------|
|-----0-0---0-0-0-----0-0---0-0-0-----0-0---0-0-0-1h3--3--3p1p0-------------|
      . .   . . .     . .   . . .     . .   . . .

|---------------------------------------------------------------------------|
|---------------------------------------------------------------------------|
|---------------------------------8-7-5---5---------------------------------|
|---------------------------------------8---8-7-5-7-5-----------------------|
|-8-6-------------6-5---------------------------------8-7-7---6----3--------|
|-----0-0---0-0-0-----0-0---0-0-0-------------------------7---6----3--------|
      . .   . . .     . .   . . .

|---------------------------------------------------------------------------|
|---------------------------------------------------------------------------|
|---------------------------------------------------------------------------|
|----------------7------------------------------------7---------------------|
|-0--0--0--0--0--5--/8~----10--9--8--/12--0--0--0--0--5--/8~----10--9--8----|
|-0--0--0--0--0------------10--9--8--/12--0--0--0--0------------10--9--8----|
     .  .  .  .                           .  .  .  .
|---------------------------------------------------------------------------|
|---------------------------------------------------------------------------|
|---------------------------------------------------------------------------|
|------------------7------------------------------------7-------------------|
|-/12--0--0--0--0--5--/8~----10--9--8--/12--0--0--0--0--5--/8~----10--9--8--|
|-/12--0--0--0--0------------10--9--8--/12--0--0--0--0------------10--9--8--|
       .  .  .  .                           .  .  .  .
|---------------------------------------------------------------------------|
|---------------------------------------------------------------------------|
|---------------------------------------------------------------------------|
|---------------------------------------------------------------------------|
|-7--5--7--5--7--8----5----7-7\\-------7--5--7--5--7--8----5----3-3\\-------|
|-7--5--7--5--7--8----5----7-7\\-------7--5--7--5--7--8----5----3-3\\-------|
  .  .  .  .  .                        .  .  .  .  .
|------------------------------------------------------|
|------------------------------------------------------|
|-7--7-5--5-7--7--7------7--7--7---------8--8-5--5-7---|
|-------------------8--8---------7--7-8----------------| x2
|------------------------------------------------------|
|------------------------------------------------------|

|------------------------------------------------------|
|------------------------------------------------------|
|------------------------------------------------------|
|-7--7-5--5-7--7--7------7--7--7---------8--8-5--5-7---|
|-------------------8--8---------7--7-8----------------|
|------------------------------------------------------|


  (solo under construction)


 (3:25)
|-----------------------------------------------------|
|----------------------------------------------10-----|
|-------7---7---6~------------10--10---9~-------------|
|--8~~----------------8~~-----------------------------|
|-----------------------------------------------------|
|-----------------------------------------------------|
                                               *

|---------------------------------------------------------------------------|
|---------------------------------------------------------------------------|
|---------------------------------------------------------------------------|\
|---------------------------------------------------------------------------| \
|-8-6-------------6-5-------------5-3---------------------------------------|  \
|-----0-0---0-0-0-----0-0---0-0-0-----0-0---0-0-0-1h3--3--3p1p0-------------|  |
      . .   . . .     . .   . . .     . .   . . .                              |
                                                                               | X3
|---------------------------------------------------------------------------|  |
|---------------------------------------------------------------------------|  /
|---------------------------------------------------------------------------| /
|-------------------------------------------------3-----3-----3-------------|/
|-8-6-------------6-5-------------5-3-------------1-----1-----1-------------|
|-----0-0---0-0-0-----0-0---0-0-0-----0-0---0-0-0-----0-----0---------------|
      . .   . . .     . .   . . .     . .   . . .     .     .

|---------------------------------------------------------------------------|
|---------------------------------------------------------------------------|
|---------------------------------------------------------------------------|
|---------------------------------------------------------------------------|
|-8-6-------------6-5-------------5-3---------------------------------------|
|-----0-0---0-0-0-----0-0---0-0-0-----0-0---0-0-0-1h3--3--3p1p0-------------|
      . .   . . .     . .   . . .     . .   . . .

|---------------------------------------------------------------------------|
|---------------------------------------------------------------------------|
|---------------------------------------------------------------------------|
|-------------------------------------------------3-----3-------------------|
|-8-6-------------6-5-------------5-3-------------1-----1-----1-------------|
|-----0-0---0-0-0-----0-0---0-0-0-----0-0---0-0-0-----0-----0-1-------------|
      . .   . . .     . .   . . .     . .   . . .     .     .

|--------------------------------|
|--------------------------------|
|--------------------------------|
|--0----0-----6-------(6)--------|
|--0----0-----5-------(5)--------|
|--0----0-----6-------(6)--------|


************************************

| .   palm mute
| /   slide up
| \   slide down
| h   hammer-on
| p   pull-off
| ~   vibrato
| *   harmonic
| x   Mute note
| b   Bend
| pb  Pre-bend
| br  Bend release
| pbr Pre-bend release
| brb Bend release bend

************************************
Tap to rate this tab
 
# A B C D E F G H I J K L M N O P Q R S T U V W X Y Z