Tarot - Things That Crawl At Night tab

1 guitar-main riff
clean:
E||------0---------0---------0---------0---------0---------0------|
B||--------4---------4---------4---------4---------4---------4----|
G||----6---------6---------6---------6---------6---------6--------|
D||---------------------------------------------------------------|
A||--4---------4---------2---------2---------0---------0----------|
E||---------------------------------------------------------------|

E||----2----------4-----|
B||------2----------4---|
G||--------2----------4-|
D||--4----------6-------|
A||---------------------|
E||---------------------|

2 guitar
distortion
      let ring
E||-------------------21~---------------21-----------------------------------|
B||-14~~~~~~~-17--14---------17--14-------------17--14--------17b--17-15-----|
G||----------------------------------14----------------14~~~~~-----------14~-|
D||--------------------------------------------------------------------------|
A||--------------------------------------------------------------------------|
E||--------------------------------------------------------------------------|

later I'll upload tab of the whole song.
Tap to rate this tab
 
# A B C D E F G H I J K L M N O P Q R S T U V W X Y Z