Song name
# A B C D E F G H I J K L M N O P Q R S T U V W X Y Z

Tarot - Things That Crawl At Night tab

|------------- TAROT - Things That Crawl at Night ---------------|

This represents an interpretation of the song. All rights reserved by TAROT 


Its not 100% accurate, but this is how I like to play the song. Enjoy :)

clean:

Eb||--------0-------0--------0--------0--------0--------0--------|
Bb||------6-------6--------6--------6--------6--------6----------|
Gb||----7-------7--------7--------7--------7--------7------------|
Db||--0-------0--------------------------------------------------|
Ab||-------------------------------------------------------------|
Eb||------------------8--------8---------6-------6---------------|


Eb||----6----------5-------|
Bb||-------4--3------5-----|
Gb||-------------------6---|  x 4
Db||--5----------7---------|
Ab||-----------------------|
Eb||-----------------------|


Eb||----------------------------------------------------|
Bb||-----6-------6--------------5-------5---------------|
Gb||--------7-------7----7---------5-------5-----5------|
Db||--------7-------7----7---------5-------5-----5------|
Ab||---8-------8------8-------7-------7-------7---------|
Eb||----------------------------------------------------|



Eb||----------------------------------------------------|
Bb||-----3-------3--------------1-------1---------------|
Gb||--------3-------3----3---------2-------2-----2------|
Db||--------3-------3----3---------2-------2-----2------|
Ab||---5-------5------5-------3-------3-------3---------|
Eb||----------------------------------------------------|

      Bb    Am    

Eb||---1-----0--------6------------8---------------||
Bb||---3-----1-----------4--3---------6--5---------||
Gb||---3-----2-------------------------------7-----||
Db||---3-----2-----5-----------7-------------7-----||
Ab||---1-----0-------------------------------5-----||
Eb||-----------------------------------------------||


Chorus

(Distorted power chords also work if you're not around a campfire :)

      Bb     C    A/C#   Dm   

Eb||---1-----3----x------5----||
Bb||---3-----5----2------6----||
Gb||---3-----5----2------7----||
Db||---3-----5----2------7----||
Ab||---1-----3----4------5----||
Eb||---x-----x----x------x----||


     Bb    C   Gm    A   Bb    C    A/C# (only 2nd chorus)    Dm

Eb||--1----3----3----5----6----3----x-------------------------7-----||
Bb||--3----5----3----5----6----5----2-------------------------6-----||
Gb||--3----5----3----6----5----5----2-------------------------7-----||
Db||--3----5----5----7----8----5----2-------------------------7-----||
Ab||--1----3----5----7----8----3----4-------------------------5-----||
Eb||--x----x----3----5----6----x----x-------------------------x-----||


If you listen to the song you'll get the idea :)
Tap to rate this tab
 
# A B C D E F G H I J K L M N O P Q R S T U V W X Y Z