Song name
# A B C D E F G H I J K L M N O P Q R S T U V W X Y Z

Taschenbillard - Fort Von Hier tab

Intro: (Auch Strophen begleitung)

   A               f#              E               D
E|---------------|---------------|---------------|-----------------|
H|-----2-----2---|-----2-----2---|-----2-----2---|-----2---2-0---0-|
G|---2---2-2---2-|---2---2-2---2-|---2---2-2---2-|---2---2-----2---|
D|---------------|---------------|---------------|-0---------------|
A|-0-------------|---------------|---------------|-----------------|
E|---------------|-2-------------|-0-------------|-----------------|
 
Es ist ein lauer Sommertag
Wie ihn wohl jeder mag
Und wir liegen hier zusammen
Und schauen uns die Wolken an
 
Die Vöglein singen zart
Der Wind streicht durch Dein Haar
Die Sonne scheint uns ins Gesicht
Du siehst so schön aus in diesem Licht
 
D                      E
Schau hinauf und fahre heim
                            f#
Wir sind schon längst nicht allein
A                                    D
      Ein letzter Schluck von meinem Bier
E                                      A
      Dann führt der Weg mich fort von hier.
 
         f#            D        E
Fort von hier fort von hier
 
Bass Fill:
 
D:|-6-7-9-7-6---|
A:|-----------7-| 
 
A, f#, E, D
 
Die Wellen rauschen schwach
Was haben wir gelacht
In den Jahren die vergangen
13 Jahre sind vorbei
 
Die Nacht sie bricht herein
Am Deich der letzte Schein
Der Mond er scheint uns ins Gesicht
Er sieht so schön aus in diesem Licht
 
Gitarren Solo: (Begleitung A, f#, E, D)
 
E|---------------------------------------------------------------------|
H|---------------------------------------------------------------------|
G|---------------------------------------------------------------------|
D|-----------------------------------------------------------7-6h7p6-7-|
A|-4h5p4---4-5p4---4-5p4-7-5-4-5-4---4-5p4-4-4-5p4-4-4-5-7-9-----------|
E|-------5-------5-----------------5-----------------------------------|
 
E|----------------------------------------------------------------|
H|----------------------------------------------------------------|
G|-----------------6-7p6---6-7p6-6-6-9p6-6-6-7p6---6-7p6---6-6-7~-|
D|-7p6---6-7-6-9-7-------7-----------------------7-------7--------|
A|-----7----------------------------------------------------------|
E|----------------------------------------------------------------|
 
E|-9h10p9----9-10p9----9-10p9-12-10-9-10-9----9-10p9-9-9-12p9-9-9-|
H|--------10--------10---------------------10---------------------|
G|----------------------------------------------------------------|
D|----------------------------------------------------------------|
A|----------------------------------------------------------------|
E|----------------------------------------------------------------|
 
E|-10p9-9-9-10p9-9--------9-10-9-----|
H|-----------------10~-----------10~-|
G|-----------------------------------|
D|-----------------------------------|
A|-----------------------------------|
E|-----------------------------------|

www.taschenbillard.net
Tap to rate this tab
# A B C D E F G H I J K L M N O P Q R S T U V W X Y Z