Song name
# A B C D E F G H I J K L M N O P Q R S T U V W X Y Z

Tat - I Dont Wann Love You tab

I Dont Wanna Love You - TAT

Sorry havent figure the solo out yet - this is just the basic idea

This is my first ever tab so sorry if it sucks - ive uploaded a poor video with just the 
on so you can get the idea and listen to how i play it -http://uk.youtube.com/watch?v=iAUXpueik48

Nothing really complicated just a bit on palm muting here and there - Enjoy

ps like TAT? add my myspace fan page www.myspace.com/tatfans

Intro
E|-----------|
B|-----------|
G|--7--------|
D|--7-5-7----|
A|--5-5-7----|
E|----3-5----|


E|-----------|
B|-----------|
G|--7--------|
D|--7-9-5----|	x2
A|--5-9-5----|
E|----7-3----|

Verse
E|-----------|
B|-----------|
G|--7--------|
D|--7-9-5-7--|
A|--5-9-5-7--|	x 4 all palm mute except for "and what you wanna do"
E|----7-3-5--|

Chorus
E|-----------|
B|-----------|
G|--7--------|
D|--7-9-5----|	x3
A|--5-9-5----|
E|----7-3----|

Last part of chous
E|-----------|
B|-----------|
G|--7--------|
D|--7-9-5-7--|
A|--5-9-5-7--|
E|----7-3-5--|
Tap to rate this tab
# A B C D E F G H I J K L M N O P Q R S T U V W X Y Z