Song name
# A B C D E F G H I J K L M N O P Q R S T U V W X Y Z

Tat - Bloodstain tab

-------------------------------------------------------------------------------
                             Bloodstain - TAT
-------------------------------------------------------------------------------
Tabbed by: Adam Jaramillo
Email: radamhadameal@yahoo.com

Dedicated to my Best Friend.

This Tab is 100% accurate. Chorus is depicted in a '1-&-2-&-3-&-4-&' rhythm for an 
easier learning experience though '1-2-&-3-&-4-&' plays better.

Tuning: Standard

Intro
e|--------------------------------------------------------------------------|
B|--------------------------------------------------------------------------|
G|--------------------------------------------------------------------------|
D|--------------------------------------------------------------------------|
A|-6~--6-8-9-8-6---------6-9~-------6-8-6----9-x-8--------------------------|
E|---------------9-7~--7------9~--9-------9~-------9~-----------------------|

e|--------------------------------------------------------------------------|
B|--------------------------------------------------------------------------|
G|--------------------------------------------------------------------------|
D|--------------------------------------------------------------------------|
A|-6~--6-6-6-8-9-8-6---------6-9~-------6-8-6----9-x-8----------------------|
E|-------------------9-7~--7------9~--9-------9~-------9~-------------------|

Verse x3                          Pre Chorus
e|-6--6----7--7----9--9----7--6---|-6--6----7~--------------------|
B|-6--6----7--7----9--9----7--6---|-6--6----7~--------------------|
G|-7--7----8--8----10-10---8--7---|-7--7----8~----6--6---6-6-6-6--|
D|-8--8----9--9----11-11---9--8---|-8--8----9~----6--6---6-6-6-6--|
A|--------------------------------|---------------4--4---4-4-4-4--|
E|--------------------------------|-------------------------------|

Chorus: First Chorus x2. All others x4
e|-------------------------------------------------------------------|
B|-------------------------------------------------7-7-7-6-6-6-------|
G|-8-8-8-8-8-8-8-8-4-4-4-4-4-4-4-4-6-6-6-6-6-6-6-6-6-6-6-5-5-5-6-6~--|
D|-8-8-8-8-8-8-8-8-4-4-4-4-4-4-4-4-6-6-6-6-6-6-6-6-4-4-4-3-3-3-6-6~--|
A|-6-6-6-6-6-6-6-6-2-2-2-2-2-2-2-2-4-4-4-4-4-4-4-4-------------4-4~--|
E|-------------------------------------------------------------------|

Repeat Intro and Verse.

Solo
e|---------7-7-------------7-7-------------6-6-------------6-6-------|
B|-----7-7-----7-7-----7-7-----7-7-----6-6-----6-6-----6-6------6-6--|
G|-4-4-------------4-4-------------3-3-------------3-3---------------|
D|-------------------------------------------------------------------|
A|-------------------------------------------------------------------|
E|-------------------------------------------------------------------|

e|---------7-7-------------7-7-------------6-6-------------6-6-------|
B|-----7-7-----7-7-----7-7-----7-7-----6-6-----6-6-----6-6------6-6--|
G|-4-4-------------4-4-------------3-3-------------3-3---------------|
D|-------------------------------------------------------------------|
A|-------------------------------------------------------------------|
E|-------------------------------------------------------------------|

e|-9--9---9-9-9-9~--|
B|-9--9---9-9-9-9~--|
G|-6--6---6-6-6-6~--|
D|------------------|
A|------------------|
E|------------------|


e|-11~--11-13-14-13-11------------11-14~--------11-13-11-----14-x-13--------|
B|---------------------14-12~--12--------14~-14----------14~---------14~----|
G|--------------------------------------------------------------------------|
D|--------------------------------------------------------------------------|
A|--------------------------------------------------------------------------|
E|--------------------------------------------------------------------------|

e|-11~--11-11-11-13-14-13-11------------11-14~--------11-13-11-----14-x-13--------|
B|---------------------------14-12~--12--------14~-14----------14~---------14~----|
G|--------------------------------------------------------------------------------|
D|--------------------------------------------------------------------------------|
A|--------------------------------------------------------------------------------|
E|--------------------------------------------------------------------------------|


************************************

| ~   vibrato
| x   Mute note

************************************
Tap to rate this tab
# A B C D E F G H I J K L M N O P Q R S T U V W X Y Z