Song name
# A B C D E F G H I J K L M N O P Q R S T U V W X Y Z

Tatiana - Martinillo tab

-------------------0---------------------|                2 times
-----1------3------------1---------------|
-----------------------------------------|
-----------------------------------------|
-----------------------------------------|
-----------------------------------------|


------0-------1------3-------------------|
-----------------------------------------|              2 times
-----------------------------------------|
-----------------------------------------|
-----------------------------------------|
-----------------------------------------|

-----3------5-----3-----1-----0----------|            2 times
------------------------------------1----|
-----------------------------------------|
-----------------------------------------|
-----------------------------------------|
-----------------------------------------|



-----------------------------------------|                 2 times
-----3------0-------1--------------------|
-----------------------------------------|
-----------------------------------------|
-----------------------------------------|
-----------------------------------------|
Tap to rate this tab
# A B C D E F G H I J K L M N O P Q R S T U V W X Y Z