Tattle Tale - Glass Vase Cello Case tab

This is almost the same opening pattern as one of the other ones, but I added one note 
playing/listening to the song a few times

e]----------------------------------------------------------------|
B]----------------------3-----3-----------------------------------|
G]----4-0---4-0---------------------------------------------------|
D]--2-----2-----2-0-4-----4----4----4-0---4-0--0---5-0---5-0------|
A]--------------------5-----5----5-2----2-----2--3-----3-----3-0--|
E]----------------------------------------------------------------|

This is an alternate picking of the same part, I think it kinda flows better sound wise 
it might seem awkward
e]----------------------------------------------------------------|
B]----0-----0-----------3-----3-----------------------------------|
G]------0-----0-------------------------------------0-----0-------|
D]--2-----2-----2-0-4----4------4----4-0---4-0--0----0----0-------|
A]--------------------5----5------5-2----2-----2--3----3----3-0---|
E]----------------------------------------------------------------|


That repeats, then the strumming chords are this (listen for strumming patterns)

e]--0----0----3----2--]
B]--0----1----3----3--]
G]--0----0----0----2--]
D]--2----2----0----0--]
A]--2----3----1----0--]
E]--0----0----2----0--]
Tap to rate this tab
 
# A B C D E F G H I J K L M N O P Q R S T U V W X Y Z