Guitaretab - guitar tabs
Song name
# A B C D E F G H I J K L M N O P Q R S T U V W X Y Z

Tattle Tale - A Girls Toolbox tab

Intro

1------------------------------------------------------------------|
2------------------------------------------------------------------|
3------------------------------------------------------------------|
4------------------------------------------------------------------|
5-----9--7----9--7-------------------------------------------------|
6---7-------7------------------------------------------------------|

Verse
[ Tab from: http://www.guitaretab.com/t/tattle-tale/53829.html ]
1------------------------------------------------------------------|
2------------------------------------------------------------------|
3------------------------------------------------------------------|
4------------------------------------------------------------------|
5------------9-9-9-7-7-7-7-7-7-6-----------------------------------|
6---7-7-7-7----------------------7---------------------------------|
Repeat throughout verse

I'm spinning...

1------------------------------------------------------------------|
2------------------------------------------------------------------|
3------------------------------------------------------------------|
4------------------------------------------------------------------|
5------------7-7-7-9-----------------------------------------------|
6---9-9-9-9-----------7-7-7-7-7-7----------------------------------|

That is the jist of it, there are some different fret movements in one part of the song, 
if these main rifts are picked throughout the song, then it will sound basically like 
real thing.
Related for A Girls Toolbox tab