Guitaretab - guitar tabs
Song name
# A B C D E F G H I J K L M N O P Q R S T U V W X Y Z
Home / T / Tatu / Ne Zhaley tab

Tatu - Ne Zhaley tab

“Ne Zhaley”
t.A.T.u.

By Alexandra, 6.15.09, MissAJWood@aol.com

Standard Tuning (EADEGBe)
Capo 3          (personal preference)

Em7  - Cadd9  - Am  - F

I based the picking pattern off of the melody that can be heard after the second 
chorus, towards the end of the song (time 2:23) - just listen to this part of the 
song to get the rhythm down. This can be played either by the tabbed picking 
pattern below or played as full chords. Personally, I finger pick the intro, 
verse, and outro and strum for the chorus. This is my first tab and by all means I 
don’t claim this to be 100% whatsoever. Please email me with any questions, 
concerns, or suggestions. Enjoy!

    Em7            Cadd9  	      Am      		F
[ Tab from: http://www.guitaretab.com/t/tatu/188653.html ]
e|---3---|	  e|---3---|       e|---x---|     e|---1---|
B|---3---|        B|---3---|       B|---1---|     B|---1---|
G|---x---|        G|---x---|       G|---2---|     G|---2---|
D|---2---|        D|---2---|       D|---2---|     D|---3---|
A|---2---|        A|---3---|       A|---x---|     A|---x---|
E|---x---|        E|---x---|       E|---x---|     E|---x---|


	         [Em7]		     [Em7]		    [Cadd9]		      [Cadd9]
 
e|--------3---------------3---------------3---------------5---3|
B|----------3---3-----------3---3-----------3---3-----------0-3|
G|------0-----0---------0-----0---------0-----0---------0------|
D|----2---------------2---------------2---------------2--------|
A|--2---------------2---------------3---------------3----------|
E|-------------------------------------------------------------|


	   [Am]               [Am]			 [F]			         [F]

e|--------0---------------0---------------1---------------3---1|
B|----------1---1-----------1---1-----------1---1-------------1|
G|------2-----2---------2-----2---------2-----2---------2---2--|
D|----2---------------2---------------3---------------3--------|
A|--0---------------0---------------0---------------0----------|
E|-------------------------------------------------------------|

Related for Ne Zhaley tab
Advertisement will be closed in 10 seconds