Song name
# A B C D E F G H I J K L M N O P Q R S T U V W X Y Z

Tatu - Cosmos Outer Space tab

Play this in drop


---------------------------------------------------------------------|
---------------------------------------------------------------------|
---------------------------------------------------------------------|
---------------------------------4-4-4-4-4-4-4-4-2-2-2---------------|
-4-4-4-4-4-4-4-4-0-0-0-0-0-0-0-0-2-2-2-2-2-2-2-2-0-0-0-4-4-4-4-4-----|
-4-4-4-4-4-4-4-4-0-0-0-0-0-0-0-0-----------------------4-4-4-4-4-----|

---------------------------------------------------------------------|
---------------------------------------------------------------------|
---------------------------------------------------------------------|
---------------------------------4-4-4-4-4-4-4-4---------------------|
-4-4-4-4-4-4-4-4-0-0-0-0-0-0-0-0-2-2-2-2-2-2-2-2-2-2-2-4--4-4-4------|
-4-4-4-4-4-4-4-4-0-0-0-0-0-0-0-0-----------------2-2-2-4--4-4-4------|


Sergej Smirnov

rguitar0710@yandex.ru
Tap to rate this tab
# A B C D E F G H I J K L M N O P Q R S T U V W X Y Z