Guitaretab - guitar tabs
Song name
# A B C D E F G H I J K L M N O P Q R S T U V W X Y Z

Tatu - Show Me Love tab

T.A.t.U. SHOW ME LOVE 
********************************* 

From the Album= 200 km/h in the wrong lane 
Day Tabbed= 18.08.06
E Mail= andrea.b83@tiscali.it
Please mail me for anything concerning the tab 

1/2 step down 
    
     VERSE (guitar and keyboard) (slight palm mute)
e |---------------------------------------------------------------------|
B |-----------4-----------------4--------------2------------------------|
G |--------5--------------5-----------------------------------2---------|
D |-----5--------------5-----5--------------4--------------4------------|
A |--3--------------3--------------------4--------------4---------------|
E |-----------------------------------2--------------2------------------|
[ Tab from: http://www.guitaretab.com/t/tatu/31640.html ]
     CHORUS (high distortion)
e |---------------------------------------------------------------------|
B |---------------------------------------------------------------------|
G |-----6-----6--------6-----6------------------------------------------|
D |-----6-----6--0--0--6--0--6---------7--7----7----------4--4----------|
A |--4--4--4--4--0--0--4--0--4------0--7--7----7----------4--4----------|
E |---------------------------------0--5--5----5-----0-2--2--2----------| 
P.M. .     .     .  .     .         .  .             . .  .                      
     
     RIFF (guitar and keyboard)      ( 1:45 )
e |---------------------------------------------------------------------------|
B |----------------------------------------------------------------------9----|
G |----------------9----------------9--10-10-10-10-10------8--8-8-9--11-------|
D |--9--9-9-8--11-----9--9-9-8--11--------------------------------------------|
A |----------------------------------------------------11---------------------|
E |---------------------------------------------------------------------------| 
    
     GUITAR RHYTHM    ( 1:45 )              ( 3:06 )          ( 3:06 )
e |--------------------------------------/-----------------/---------------------|
B |--------------------------------------/-----------------/---------------------|
G |---6---6---11-------6---6---11--------/--6--0--6--0--6--/---6~----------------|
D |---6---6---11---9---6---6---11---9----/--6--0--6--0--6--/---6~---7~---4~------|
A |---4---4----9---9---4---4----9---9----/--4--0--4--0--4--/---4~---7~---4~------|
E |----------------7----------------7----/-----------------/--------5~---2~------|
                                               X 2 

Tablature Explanation 
*********************** 

P.M. . = palm mute 
     ~ = hold
 

Related for Show Me Love tab