Song name
# A B C D E F G H I J K L M N O P Q R S T U V W X Y Z

Tatu - Loves Me Not tab

T.A.t.U. LOVES ME NOT
********************************* 

From the album: Dangerous and Moving 
Day Tabbed: 17.08.06 
E Mail: andrea.b83@tiscali.it 
Please mail me for anything concerning the tab 

1 and 1/2 step down 
    
     VERSE (there's not guitar here but sound is good so if you like it play this)
e |-----------------------------------------------------------|
B |-----------------------------------------------------------|
G |-----------------------------------------------------------|
D |-----------------------------------------------------------|
A |--5---7---9-----5---7---9-----5---7---4---5----4-----------|
E |--3---5---7-----3---5---7-----3---5---2---3----2-----------| 

     CHORUS  (high distortion)
e |-----------------------------------------------------------|
B |-----------------------------------------------------------|
G |-----------------------------------------------------------|
D |--x--0-5------4-----------9-----------7--------------------|
A |--x--0-5------4-----------9-----------7--------------------|
E |--x--0-3------2-----------7-----------5--------------------| 
    |______|
    quickly 

Tablature Explanations 
************************ 

x = scratch 

Tap to rate this tab
 
# A B C D E F G H I J K L M N O P Q R S T U V W X Y Z