Guitaretab - guitar tabs
Song name
# A B C D E F G H I J K L M N O P Q R S T U V W X Y Z
Home / T / Tatu / Gomenasai tab

Tatu - Gomenasai tab

t.A.t.U. GOMENASAI
************************************* 

From the album= Dangerous and Moving
Day Tabbed= 03.03.07
E Mail= Andrea.b83@tiscali.it
Please mail me for anything concerning the tab  

Standard Tuning 

(This is my personal interpretation of this song.For a better 
 sound use a classic guitar) 


e |--------------------------------------------------------0-----|
B |----------1-0-----------0-1-----------1--3-----------3--------|
G |-------2-------------0-------------0--------------0-----------|
D |--------------------------------------------------------------|
A |--0----------------------------3------------------------------|
E |-----------------3----------------------------1---------------|

[ Tab from: http://www.guitaretab.com/t/tatu/66513.html ]
e |--------0-----------------------------------------------------|
B |-----------3-----------0-1------------1--0--------------0-----|
G |-----0--------------0--------------0-------------0--2---------|
D |--------------------------------------------------------------|
A |--0----------------------------3------------------------------|
E |----------------3-----------------------------1---------------| 


E |--------------------------------------------------------0-----| 
B |---------1-0-----------0-1------------1-3-----------3--------|
G |------2-------------0--------------0--------------0-----------|
D |--------------------------------------------------------------|
A |--0----------------------------3------------------------------|
E |----------------3-----------------------------1---------------| 

e |--------0-----------------------------------------------------|
B |-----------3-----------0-1-----------1~-----------------------|
G |-----0--------------0-----------------------------------------|
D |--------------------------------------------------------------|
A |--0----------------------------------3~-----------------------|
E |----------------3---------------------------------------------|
Related for Gomenasai tab