Song name
# A B C D E F G H I J K L M N O P Q R S T U V W X Y Z

Tatu - Obezyanka Nol tab

Help us improve GuitareTab! Take a short survey!
t.A.t.U. OBEZYANKA NOL
************************************* 

From the album= Dangerous and Moving
Day Tabbed= 23.11.06
E Mail= Andrea.b83@hotmail.it
Please mail me for anything concerning the tab  

1/2 Step Down

there is another version of this song in english callednull and void


     ACUSTIC GUITAR VERSE                       BREAK ( 1:15 )
    (hear the song for the right rhythm)
e |-------X--------6--------6-----------|-------------------------------------|            
B |-------1--------7--------6-----------|-------------------------------------|
G |-------3--------8--------6-----------|-------------------------------------|                 
D |-------3--------8--------8-----------|-----8~--8--8-----------8------------|               
A |-------1--------6--------8-----------|-----8~--8--8--------------8---------|             
E |-------X-----------------6-----------|-----6~--6--6-----6--6--------6------|                 
                                                           *  *  *  *  *
         CHORUS
e |---------------------------------------------------------------------------|
B |---------------------------------------------------------------------------|
G |----8-8-8-8----8-8-8-8----8-8----10-10-10-10----10-10-10-10----10-10-------|
D |----8-8-8-8----8-8-8-8----8-8----10-10-10-10----10-10-10-10----10-10-------|
A |----6-6-6-6----6-6-6-6----6-6-----8--8--8--8-----8--8--8--8-----8--8-------|
E |---------------------------------------------------------------------------|

e |-------------------------------------------------------------------|
B |-------------------------------------------------------------------|
G |-------------------------------------------------------------------|
D |----8-8-8-8----8-8-8-8----8-8----8-8-8-8----8-8-8-8----8-8---------|
A |----8-8-8-8----8-8-8-8----8-8----8-8-8-8----8-8-8-8----8-8---------|
E |----6-6-6-6----6-6-6-6----6-6----6-6-6-6----6-6-6-6----6-6---------|
 
  
 
Tablature Explanation 
*********************** 
   * = palm mute 
   x = mute string  
   ~ = hold
Related for Obezyanka Nol tab