Song name
# A B C D E F G H I J K L M N O P Q R S T U V W X Y Z

Taxiride - Afterglow tab

Artist- Taxiride
Song- Afterglow
Album- Garage Mahal
Tabbed by- Joel. (¤gOoDcHaRlOtTe¤)
Tuning- e standard.

I was mucking around my my guitar and i found this riff. It is for the intro
and outro and some other parts of afterglow. Can someone please tab the album?
If you could do that, it would be appreciated greatly. Enjoy.

/- Slide up
\- Slide down
b - bend
rb - release bend
~ - let ring
x - mute

Guitar 1 (Lead):
e -------------------------------------------------------------------|
B -3/6-6-6-6-6-6-7\3-3-3-3-3-3-3-3-6-6-6-6-6-6-6/3-7-7-7-7-7-7-7b\3rb|
G -------------------------------------------------------------------|
D -------------------------------------------------------------------|
A -------------------------------------------------------------------|
E -------------------------------------------------------------------|

e -------------------------|
B -3-3-3-3-3---------------|
G -------------------------|
D -------------------------|
B -------------------------|
E -------------------------|

Guitar 2 (Rythym):
e -------------------------------------------------------------------|
B -------------------------------------------------------------------|
G -7-10-10-10-10-10-10-11-xx-7-7-7-7-7-7-7-7-10-10-10-10-10-10-10----|
D -7-10-10-10-10-10-10-11-xx-7-7-7-7-7-7-7-7-10-10-10-10-10-10-10----|
A -5-8--8--8--8--8--8--9--xx-5-5-5-5-5-5-5-5-8--8--8--8--8--8--8-----|
E -------------------------------------------------------------------|

e --------------------------------------------------------------|
B --------------------------------------------------------------|
G -11-11-11-11-11-11-11b-7-7-7-7-7-7----------------------------|
D -11-11-11-11-11-11-11b-7-7-7-7-7-7----------------------------|
A -9--9--9--9--9--9--9-b-5-5-5-5-5-5----------------------------|
E --------------------------------------------------------------|

Enjoy
Tap to rate this tab
# A B C D E F G H I J K L M N O P Q R S T U V W X Y Z