Song name
# A B C D E F G H I J K L M N O P Q R S T U V W X Y Z

Tay Zonday - Chocolate Rain tab

E ----------------------------------|
B ----------------------------------|
G ------0---------------------------|
D --1-1-----3---0-1-------0---------|
A --------3---1-------3-------1-3---|
D ------------------1---5---5-----5-|

E ----------------------------------|
B ----------------------------------|
G ------0---------------------------|
D --1-1-----3---0-1-------0---------|
A --------3---1-------3-------1-3---|
D ------------------1---5---5-----5-|

E ----------------------------------|
B ----------------------------------|
G ------0---3-----------------------|
D --1-1---------0-1-------0---------|
A --------3-----------3-------1-3-3-|
D ------------5-----1---5---5-------|

E ----------------------------------|
B --1-------------------------------|
G ------0-0-3-----0-----------------|
D --------------3-----1---3---0-1~--|
A ----3-------1---------3---1-------|
D ------------------6---------------|

It might be easier if you convert it to an octave higher (you wouldn't have to tune to 
D) and it will sound cooler because this part is generally higher but this is what I 
Please rate and/or comment! Thanks!
Tap to rate this tab
# A B C D E F G H I J K L M N O P Q R S T U V W X Y Z