Guitaretab - guitar tabs
Song name
# A B C D E F G H I J K L M N O P Q R S T U V W X Y Z

Taylor Hawkins And The Coattail Riders - Louise tab

Taylor Hawkins and The Coattail Riders - Louise


Hey everyone This s the drummer out of foo fighters (Taylor Hawkins) Hit single off his 
Its a top song so

enjoy


Instrument: Guitar
Tuning: eBGDAE

Tabbed By: Loddy


Verse
e||-------------||
B||-------------||
G||----3-----2--|| (3 times)
D||--3-3-3-5-2--||
A||--3-1-3-5-0--||
E||--1---1-3----||
   "Woke up in my head..."

e||------------------------||
B||------------------------||
G||------------------------|| (To be corrected)
D||----8---8------8---8-5--||
A||---8---8------8---8--5--||
E||--6---5---6--6---5---3--||
   "Close my eyes..."

[ Tab from: http://www.guitaretab.com/t/taylor-hawkins-and-the-coattail-riders/154143.html ]
Chorus
  Gtr. Rhythm
e||---------------------------------------||
B||---------------------------------------||
G||-----------33333333--------------------|| (twice)
D||--55555555-33333333-33333333-55555555--||
A||--55555555-11111111-33333333-55555555--||
E||--33333333----------11111111-33333333--||
   "Louise, it's me..."

  Gtr. Lead
e||-------------------------10----10----10-----||
B||-----6h8-6----6--5--12b-----12----12----12--||
G||--5-----------------------------------------|| (the 2nd time)
D||--------------------------------------------||
A||--------------------------------------------||
E||--------------------------------------------||


Solo
  Gtr. Rhythm
e||-------------||
B||-------------||
G||----3-----2--||
D||--3-3-3-5-2--||
A||--3-1-3-5-0--||
E||--1---1-3----||

  Gtr. Lead
e||--
B||--
G||-- To be tabbed
D||--
A||--
E||--


http://www.taylorhawkins.com/index.php
Related for Louise tab