Guitaretab - guitar tabs
Song name
# A B C D E F G H I J K L M N O P Q R S T U V W X Y Z

Taylor James - My Romance tab

this my first tab so lay off.

standard tuning ' intro:my romance
[ Tab from: http://www.guitaretab.com/t/taylor-james/18961.html ]
e -----00--0-----0----0-----------3-3--3-----5787/5/3/5-----0----0-|
b ----1-1-1------00-0-0-6/8/5/3---56-5/6-5/6-----------65313--1/3--|
g ---2-2-0-00----4-4-----------------------------------------------|
d --3--3-2--22--55-5-----------------------------------------------|
a -3-----2------5-5-----0--0------3--3--3-----------------3---3--3-|
e 0-----------3---3------------------------------------------------|

e-0/1-------------------------12/13/12-----10/12/8------------------|
b----1/3/1/0---12/13/15-121315--------10/12-------10/12/8-----------|
g-----------------------------------------------------------8/7/6/5-|
d-------------------------------------------------------------------|
a-3----3---3---12-------------------0-------------------0---8/7/6/5-|
e-------------------------------------------------------------------|

e--3
b--5
g--3
d---
a--3
e---
Related for My Romance tab
×
My Romance