Song name
# A B C D E F G H I J K L M N O P Q R S T U V W X Y Z

Taylor James - Shower The People tab

-------------------------------------------------------------------------------
			  SHOWER THE PEOPLE - James Taylor
-------------------------------------------------------------------------------
Tabbed by:Arad512

Tuning: Standard with capo on 3rd fret

Intro
e|-----------------|
B|-------0---2-----|
G|-0-2---------2---|
D|-----0---0-----0-|
A|-----------0-----|
E|-0-2---3---------|

Verse 1
e|-0h2-------------0---------------------------------------|
B|-------3---------0h2-------------------3-------3-------3-|
G|-----2-----------------2-------------4-------2-------0---|
D|-0-------------------2-------------4-------4-------0-----|
A|-----------------0---------------2-------0---------------|
E|-------------------------------------------------3-------|

e|-3p2-------------------------------------------------------------|
B|-----3-----------3-------2---------------3-2-----------3---------|
G|-------2-----------0-------0-----------------0-------0-----0---0-|
D|-0-------------------2-------2-----------------2---0---------0---|
A|-----------------0-------1-------2-------0-----------------------|
E|-------------------------------------------------3---------------|

e|-------2---------------0---------------------------------|
B|-----3---------------2-----------------3-------3-------3-|
G|---2---------------2-----------------4-------2-------0---|
D|-0---------------------------------4-------4-------0-----|
A|-----------------0---------------2-------0---------------|
E|-------------------------------------------------3-------|

e|-------2---------------0---------------------------------------|
B|-----3-----3---3---2-----------2-----3-------3---0-----------3-|
G|-----------------------------0-----------------------0---2-----|
D|-0-----------0-------2-----2-------4-------4-------0-------0---|
A|-----------------0-------1-------2-------0---------------------|
E|-------------------------------------------------3-------2-----|

Chorus
e|-----------------------0-------------------------------0---------|
B|-------3-------3---2-------------------3-------3---2-------------|
G|---0-0-----0-0-------2-----2-2-2---0-0-----0-0-------2-----2-2-2-|
D|---2-2-----2-2-------2-----2-2-2---2-2-----2-2-------2-----2-2-2-|
A|---2-2-----2-2---0-------0---------2-2-----2-2---0-------0-------|
E|-0-------0-----------------------0-------0-----------------------|

e|-----------------------0-----------------------------------------|
B|-------3-------3---2-------2-2-2---3-3-3---3-3-3---4-4-4---4-4-4-|
G|---0-0-----0-0-------2-----0-0-0---4-4-4---4-4-4---5-5-5---5-5-5-|
D|---2-2-----2-2-------2-----2-2-2---4-4-4---4-4-4---4-4-4---4-4-4-|
A|---2-2-----2-2---0-------1-------2-------2-----------------------|
E|-0-------0---------------------------------------2-------2-------|

e|-----------------------0-------------------------------0---------|
B|-------3-------3---2-------------------3-------3---2-------------|
G|---0-0-----0-0-------2-----2-2-2---0-0-----0-0-------2-----2-2-2-|
D|---2-2-----2-2-------2-----2-2-2---2-2-----2-2-------2-----2-2-2-|
A|---2-2-----2-2---0-------0---------2-2-----2-2---0-------0-------|
E|-0-------0-----------------------0-------0-----------------------|

e|-----------------------0-------------------------0---------------|
B|-------3-------3---2-------2-2-2---3-3-3---3-3---1-------3-------|
G|---0-0-----0-0-------2-----0-0-0---4-4-4---4-4-----------0-------|
D|---2-2-----2-2-------2-----2-2-2---4-4-4---4-4-----------------0-|
A|---2-2-----2-2---0-------1-------2-------2-----3-----------2-3---|
E|-0-------0-----------------------------------------0-2-3---------|

Verse 2
e|-2---------------0---------------------------------------|
B|-3---------------0h2-----------------3-------3---------3-|
G|---------------------------------------4-------2-----0---|
D|---------------------------------------------------0-----|
A|-----------------0---------------2-------0---------------|
E|-------------------------------------------------3-------|

e|---------2-------------0---------------------------------|
B|-----3-------3-------2-------2-------3-------3---------3-|
G|---2---2---2---2---2-----------0---------------------0---|
D|-0-------------------------2-------4-------4-------0-----|
A|-----------------0-------1-------2-------0---------------|
E|-------------------------------------------------3-------|

e|-------2---------------0---------------------------------|
B|-----3-----3---------2-----2-----------3-------3-------3-|
G|---2---------2-----2---------0-------4-------2-------0---|
D|-0-------------0---------------2---4-------4-------0-----|
A|-----------------0---------------2-------0---------------|
E|-------------------------------------------------3-------|

e|-------2-------------0-----------------------------------------|
B|-----3-----3---3---2---------2-------3-------3---0-----------3-|
G|---2---------2-----------------0-------4-------------0---2-----|
D|-0-------------------------2-------4-------4-------0-------0---|
A|-----------------0-----0-1-------2-------0---------------------|
E|-------------------------------------------------3-------2-----|

Chorus
e|-----------------------0-------------------------------0---------|
B|-------3-------3---2-------------------3-------3---2-------------|
G|---0-0-----0-0-------2-----2-2-2---0-0-----0-0-------2-----2-2-2-|
D|---2-2-----2-2-------2-----2-2-2---2-2-----2-2-------2-----2-2-2-|
A|---2-2-----2-2---0-------0---------2-2-----2-2---0-------0-------|
E|-0-------0-----------------------0-------0-----------------------|

e|-----------------------0-----------------------------------------|
B|-------3-------3---2-------2-2-2---3-3-3---3-3-3---4-4-4---4-4-4-|
G|---0-0-----0-0-------2-----0-0-0---4-4-4---4-4-4---5-5-5---5-5-5-|
D|---2-2-----2-2-------2-----2-2-2---4-4-4---4-4-4---4-4-4---4-4-4-|
A|---2-2-----2-2---0-------1-------2-------2-----------------------|
E|-0-------0---------------------------------------2-------2-------|

e|-----------------------0-------------------------------0---------|
B|-------3-------3---2-------------------3-------3---2-------------|
G|---0-0-----0-0-------2-----2-2-2---0-0-----0-0-------2-----2-2-2-|
D|---2-2-----2-2-------2-----2-2-2---2-2-----2-2-------2-----2-2-2-|
A|---2-2-----2-2---0-------0---------2-2-----2-2---0-------0-------|
E|-0-------0-----------------------0-------0-----------------------|

e|-----------------------0-----------------------------------------|
B|-------3-------3---2-------2-2-2---------3-2---------3-----3-2-0-|
G|---0-0-----0-0-------2-----0-0-0-------------2-------------------|
D|---2-2-----2-2-------2-----2-2-2---------------2---4-------4-2-0-|
A|---2-2-----2-2---0-------1-------2---------------2---------------|
E|-0-------0-------------------------------------------------------|

Outro
e|-------0-------------------0-------------------------------0-----|
B|-----0---------0---2-----------2-------3-------0-------------2---|
G|---0-------0-2---------2-----2-------0-----0-2-----0-----2-----2-|
D|-----------------0-----------------2-----------------0-----------|
A|-------------------0-------2---------------------------0---------|
E|-0---------0-2-3-------2---------0---------0-2-3-----------------|

e|---------------------------0-------------------------------0-----|
B|-------3-------0---2-----------2-------3-------0-------------2---|
G|-----0-----0-2---------2-----2-------0-----0-2-----0-----2-----2-|
D|---2-------------0-----------------2-----------------0-----------|
A|-------------------0-------2---------------------------0---------|
E|-0---------0-2-3-------2---------0---------0-2-3-----------------|


| /  slide up
| \  slide down
| h  hammer-on
| p  pull-off
| ~  vibrato
| +  harmonic
| x  Mute note
===============================================================================
Tap to rate this tab
 
# A B C D E F G H I J K L M N O P Q R S T U V W X Y Z