Song name
# A B C D E F G H I J K L M N O P Q R S T U V W X Y Z

Taylor Swift - Fearless tab

No one had the beginning tune to this song, so I decided to try to figure it out. 

First tab, so be nice =P

Capo 3

e----0---0---2--------0---0-2-3-2-------0---0--2-5-3-2-0-----------|
B--3---3------------3---3-------------3---3------------------------|
G------------------------------------------------------------------|
D------------------------------------------------------------------|
A------------------------------------------------------------------|
E------------------------------------------------------------------|
                                                ^ ^ ^ ^

e----0---0---2--------0---0-2-3-2-------0---0--2-5-3-5-3-----------|
B--3---3------------3---3-------------3---3------------------------|
G------------------------------------------------------------------|
D------------------------------------------------------------------|
A------------------------------------------------------------------|
E------------------------------------------------------------------|
                                                ^ ^ ^ ^
I cannot tell if there is other notes being played where the '^' are or if
I'm hearing things (they sound like they should be on the B string)...

Either way, hope this helps and tell me if somethings wrong and I will try
harder to fix it, or better yet tell me what it needs to be replaced with =P
Tap to rate this tab
 
# A B C D E F G H I J K L M N O P Q R S T U V W X Y Z