Song name
# A B C D E F G H I J K L M N O P Q R S T U V W X Y Z

Taylor Swift - A Perfectly Good Heart tab

The solo part between chorus. It is simplified and may not be accurate.



      Q     E   E.   S  S  S  S  S  S  S  
E||--12----11--12---11-12-12-11-12-11----|
B||-----------------------------------12-|
G||--------------------------------------|
D||--------------------------------------|
A||--------------------------------------|
E||--------------------------------------|


   E   S  E   E.   S  S  E   S  S  S S     S  E   S  E   S E.  E  E  E   
--11--11-14--14---11-14-14--11-12-12-9-|--11-12--12-11--11-9---9--9--9--|
---------------------------------------|--------------------------------|
---------------------------------------|--------------------------------|
---------------------------------------|--------------------------------|
---------------------------------------|--------------------------------|
---------------------------------------|--------------------------------|


   S  S  S  E   S  E   E   S  S  S  S  S  S     Q     E   Q.      S  S  S  S  
--11-12-11-11--11-14--14--12-11-12-14-16-17-|--19----19--19------17-16-14-12-|
--------------------------------------------|--------------------------------|
--------------------------------------------|--------------------------------|
--------------------------------------------|--------------------------------|
--------------------------------------------|--------------------------------|
--------------------------------------------|--------------------------------|


   E   E   E      Q     S  S  S  S  S  S  
--14--16--17--14g16----14-16-17-16-14-12-|
-----------------------------------------|
-----------------------------------------|
-----------------------------------------|
-----------------------------------------|
-----------------------------------------|


  S  S S  S  S S  S  S S  S S S S S S S    Q    S S  S  S  H          
-------9-12----9-12----9-12---9---------|-------7-9-11-14-19--------||
----12------12------10------9---9-7---7-|--7------------------------||
------------------------------------9---|---------------------------||
----------------------------------------|---------------------------||
----------------------------------------|---------------------------||
----------------------------------------|---------------------------||




Duration Legend
---------------
W - whole
H - half
Q - quarter
E - 8th
S - 16th
T - 32nd
X - 64th
Tap to rate this tab
 
# A B C D E F G H I J K L M N O P Q R S T U V W X Y Z