Guitaretab - guitar tabs
Song name
# A B C D E F G H I J K L M N O P Q R S T U V W X Y Z

Taylor Swift - Shouldve Said No tab

I am almost certain about this, or maybe just one or two notes wrong :P For the 
intro and chords check out the others, this one is the "solo" part after 2nd chorus.

     E  E  E  E  E  E  E  E     E  E  E  E  E  E  Q     
E||--------3-----2-----0-----|--------0-----2-----0----|
B||--3--3-----3-----3-----3--|--3--3-----3-----3-------|
G||--------------------------|-------------------------|
D||--------------------------|-------------------------|
A||--------------------------|-------------------------|
E||--------------------------|-------------------------|

[ Tab from: http://www.guitaretab.com/t/taylor-swift/180707.html ]
  E  E  E  E  E  E  Q       E  E  E  E  E  E  E  E     E  E  E  E  E  E  E  E   
--------0-----2-----0----|--------0-----------0-----|--3-----2-----0-----------|
--2--3-----3-----3-------|-----3-----3--2--3-----3--|-----3-----3-----3--3--3--|
-------------------------|--------------------------|--------------------------|
-------------------------|--------------------------|--------------------------|
-------------------------|--------------------------|--------------------------|
-------------------------|--------------------------|--------------------------|


  E  E  E  E  E  E  E  E     E  E  E  E  E  E  E  E   
--------------------------|--0-----------------------|
--2--3--2--0--------------|-----3--3--2--2--0--0-----|
--------------2--0-----0--|-----------------------2--|
--------------------4-----|--------------------------|
--------------------------|--------------------------|
--------------------------|--------------------------|


  E  E  E  E  E  E  E  E    
--------------------------||
-----------------------0--||
--2--0--0--------0--2-----||
-----------4--4-----------||
--------------------------||
--------------------------||




Duration Legend
---------------
W - whole
H - half
Q - quarter
E - 8th
S - 16th
T - 32nd
X - 64th
Related for Shouldve Said No tab
Shouldve Said No chords by Taylor Swift