Guitaretab - guitar tabs
Song name
# A B C D E F G H I J K L M N O P Q R S T U V W X Y Z

Taylor Swift - Fearless chords

Highlighted       Show chord diagrams
Taylor Swift
Fearless
Fearless
2009
Submitted by: paramore_fans@yahoo.com

Key: F

Tuning: Standard EADGBe

Chords used:
F -   133211
C -   x32010
Gm -  355333
Bb -  x13331
Eb -  x68886
F/A - x032xx


Intro:

Guitar 2:
e|----------5----------5-6-5-----------5--8---6---5-------|
B|-6-8-6-8-----6-8-6-8--------6-8-6-8-------6---6---6-8-6-|
G|--------------------------------------------------------|
D|--------------------------------------------------------|
A|--------------------------------------------------------|
E|--------------------------------------------------------|


then F--C--Gm--Bb--

Guitar 2:
e|----------5--------------------------5--8---6---8---6---|
B|-6-8-6-8-----6-8-6-8-6-5-6--6-8-6-8-------6---6---6---6-|
G|--------------------------------------------------------|
D|--------------------------------------------------------|
A|--------------------------------------------------------|
E|--------------------------------------------------------|


Verse 1:
F
  There's something
about the way
C
  The street looks when
          Gm
it's just rained
Thereís a glow
        Bb
off the pavement
               F
Walk me to the car
                     C
And you know I wanna ask
                   Gm
you to dance right there
                     Bb(hold)
In the middle of the parking lot
Yeah


Interlude: F--C--Gm--Bb--

Guitar 2:
e|----------5--------------------------5--8---6---8---6---|
B|-6-8-6-8-----6-8-6-8-6-5-6--6-8-6-8-------6---6---6---6-|
G|--------------------------------------------------------|
D|--------------------------------------------------------|
A|--------------------------------------------------------|
E|--------------------------------------------------------|

[ Tab from: http://www.guitaretab.com/t/taylor-swift/187537.html ]
Verse 2:
F
  We're driving down the road
C                 Gm
  I wonder if you know
                   Bb
I'm trying so hard not
to get caught up now
F
  But you're just so cool
C                           Gm
Run your hands through your hair
                Bb        C
Absent mindedly making me want you


Chorus:
F                      C
  And I don't know how it
                 Gm
gets better than this
You take my hand and
        Bb
drag me head first
C       F
Fearless And I don't know
    C
why but with you I'd
Gm
dance In a storm in my
Bb         C
best dress Fearless


Interlude: F--C--Gm--Bb--

Guitar 2:
e|----------5--------------------------5--8---6---8---6---|
B|-6-8-6-8-----6-8-6-8-6-5-6--6-8-6-8-------6---6---6---6-|
G|--------------------------------------------------------|
D|--------------------------------------------------------|
A|--------------------------------------------------------|
E|--------------------------------------------------------|


Verse 3:
F
  So baby drive slow
C                     Gm
  Until we run out of road
                  Bb
in this one horse town
                   F
I wanna stay right here
                    C
in this passengerís seat
                     Gm
You put your eyes on me
In this moment now
Bb            C
capture every memory


(Repeat Chorus)


Interlude: Gm--Bb--F--C-- x2


Bridge:
Eb
  Well you stood there
     F
with me in the doorway
   Gm
my hands shake
    F/A      Bb      C
I'm not usually this way but
Eb
  You pull me in and Iím
  F
a little more brave
         Gm              F/A
Itís the first kiss it's flawless
       Bb       C
really something itís fearless


Interlude: F--C--Gm--Bb--


(Repeat Chorus)
Related for Fearless chords