Song name
# A B C D E F G H I J K L M N O P Q R S T U V W X Y Z

Taylor Swift - Tim Mcgraw tab

-------------------------------------------------------------------------------
			     TIM MCGRAW - TAYLOR SWIFT
-------------------------------------------------------------------------------
Tabbed by: Loulou800 (Loulou)
Email:-not given-

Tuning: Standard, Capo 3

INTRO:
e|---------------0-----------------------------------------------------------|
B|-0---2--0-----------0----2--0----------------------------------------------|
G|------------2------------------2---------2---------------------------------|
D|------------------------------------2--------------------------------------|
A|---------------------------------------------------------------------------|
E|---------------------------------------------------------------------------|

And that's all I got up to, sorry guys! 
This is my second tab!:D 

And then you just play the song after that (if you can figure out the rest)! 

I'll get you started:

G                                Em
You said the way my blue eyes shined 
Em                           C    
Put those Georgia stars to shame that night
C               D
I said that's a lie 

G                       Em
Just a boy in a Chevy truck 
Em                       C        
That had a tendency of gettin' stuck
C               D
At back roads at night 

...and it continues on from there!^^
Hope you enjoyed, and leave comments on how I can improve please!
Bye guys!


| /  slide up
| \  slide down
| h  hammer-on
| p  pull-off
| ~  vibrato
| +  harmonic
| x  Mute note
===============================================================================
Tap to rate this tab
# A B C D E F G H I J K L M N O P Q R S T U V W X Y Z