Song name
# A B C D E F G H I J K L M N O P Q R S T U V W X Y Z

Taylor Swift - You Belong With Me tab

I have a soft spot in my heart for talyor swift. 
This is my quick, makeshift version. I may put a full, 
real version if I get a chance with a better tab of the solo. In 
the recording, it sounds like two guitars are doing different parts, 
so this is it consolidated to one guitar


Tuned 1/2 step down


 Solo:

e|-------------------------------------------------------|
B|---8-8-8--10-10-10--12-12-12---------------------------|
G|---x-x-x--x--x--x---x--x--x----------------------------| x2
D|---5-5-5--7--7--7---9--9--9----9br-p7------------------|
A|--------------------------------------10---------------|
D|-------------------------------------------------------|


e|---------------7/10------7h8p7----------------------------|
B|-------------8-----------------8--------------------------|
G|---------7-9---------------------9-7----------------------|  
D|-----7-9-----------------------------7--------------------|
A|--10-----------------------------------7------------------|
D|----------------------------------------------------------|



br- bend/return
/ - slide
h- hammer on
p- pull off
Tap to rate this tab
# A B C D E F G H I J K L M N O P Q R S T U V W X Y Z