Guitaretab - guitar tabs
Song name
# A B C D E F G H I J K L M N O P Q R S T U V W X Y Z

Taylor Swift - You Belong With Me tab

You Belong With Me - Taylor Swift

CAPO 4 (All Tabs Relative to Capo)

Listen to song for timing.

Intro:

E:------------------------------------------------------------|
B:------------3-----------------------------3-----------------|
G:0H2-2-2---2-------------------0H2-2-2---2-------------------|
D:--------4-----5-4-5-4-5-4-2-0---------4-----5-4-5-4-5-4-2-0-|
A:------------------------------------------------------------|
E:------------------------------------------------------------|

Verses:

E:-----------------------------------------------------------------|
B:-----3-----3---3-----3-----3---3-----2-----2---2-----2-----2---2-|
G:---2-----2---------2-----2---------2-----2---------2-----2-------|
D:-0-----0-----0---0-----0-----0---2-----2-----2---2-----2-----2---|
A:-----------------------------------------------------------------|
E:-----------------------------------------------------------------|

E:-----------------------------------------------------------------|
B:-----0-----0---0-----0-----0---0-----3-----3---3-----3-----3---3-|
G:---0-----0---------0-----0---------0-----0---------0-----0-------|
D:-2-----2-----2---2-----2-----2---0-----0-----0---0-----0-----0---| X2
A:-----------------------------------------------------------------|
E:-----------------------------------------------------------------|

Pre-Chorus:

E:-----------------------------------------------------------------|
B:-----0-----0---0-----3-----3---3-----3-----3---3-----2-----2---2-|
G:---0-----0---------0-----0---------2-----2---------2-----2-------|
D:-2-----2-----2---0-----0-----0---0-----0-----0---2-----2-----2---|
A:-----------------------------------------------------------------|
E:-----------------------------------------------------------------|

E:-----------------------------------------------------------|
B:-----0-----0---0-----3-----3---3-----2-----2---2-----2-----|
G:---0-----0---------0-----0---------2-----2---------2-----2-|
D:-2-----2-----2---0-----0-----0---2-----2-----2---2-----2---|
A:-----------------------------------------------------------|
E:-----------------------------------------------------------|

Chorus:
[ Tab from: http://www.guitaretab.com/t/taylor-swift/205304.html ]
   D                   A                Em               G
E:---022022202202200---22022202202200---3332220000000000-3332223333333333-|
B:-3333333333333333333-2222222222222233-0000000000333000-0000000000000000-|
G:-2222222222222222222-2222222222222222-0000000000000022-0000000002222222-|
D:-0000000000000000000-2222222222222222-2222222222222222-0000000000000000-|
A:---------------------0000000000000000-2222222222222222-xxxxxxxxxxxxxxxx-|
E:--------------------------------------0000000000000000-3333333333333333-|

   D                A                Em               G
E:-22022202202200---22022202202200---3332220000000000-3332223333333333-|
B:-3333333333333333-2222222222222233-0000000000333000-0000000000000000-|
G:-2222222222222222-2222222222222222-0000000000000022-0000000000000000-|
D:-0000000000000000-2222222222222222-2222222222222222-0000000000040044-|
A:------------------0000000000000000-2222222222222222-xxxxxxxxxxxxxxxx-|
E:-----------------------------------0000000000000000-3333333333333333-|

Solo:

E:-------0-0-0-2--2H3-2-0----------0-0-0-2--2H3-2-0----|
B:-3-3-3------------------3--3-3-3------------------3~-|
G:-----------------------------------------------------|
D:-----------------------------------------------------|
A:-----------------------------------------------------|
E:-----------------------------------------------------|

E:-0--0-0-0-2-3/5~5~5~-2H3-2-0-------|
B:-----------------------------3-0---|
G:---------------------------------2-|
D:-----------------------------------|
A:-----------------------------------|
E:-----------------------------------|

Bridge:

E:-----------------------------------------------------------------|
B:-----0-----0---0-----3-----3---3-----3-----3---3-----2-----2---2-|
G:---0-----0---------0-----0---------2-----2---------2-----2-------|
D:-2-----2-----2---0-----0-----0---0-----0-----0---2-----2-----2---|
A:-----------------------------------------------------------------|
E:-----------------------------------------------------------------|

E:--------------------------------------------------------------------|
B:-----0-----0---0-----3-----3---3-----3-----3---3-----2-----2-----2~-|
G:---0-----0---------0-----0---------2-----2---------2-----2-----2----|
D:-2-----2-----2---0-----0-----0---0-----0-----0---2-----2-----2---2~-|
A:--------------------------------------------------------------------|
E:--------------------------------------------------------------------|

Song Order
Intro
Verse 1
Pre-Chorus
Chorus
Intro Riff
Verse 2
Pre-Chorus
Chorus
Solo
Bridge
Chorus
Related for You Belong With Me tab
You Belong With Me chords by Taylor Swift