Song name
# A B C D E F G H I J K L M N O P Q R S T U V W X Y Z

Taylor Swift - Jump Then Fall tab

  Just hold a D chord while the second guitar plays D,A,G,A.
e[--0h2--0-2---0-0---2----0h2--0-2---0-2-3-2---]
b[--3--------------3---3--3--------3---------3-]
g[--2--------2------------2--------------------]
d[--0---------------------0--------------------]
a[---------------------------------------------]
E[---------------------------------------------]

e[--0h2--0-2---0-0---2----3---------0----------]
b[--3--------------3---3--3---------2----------]
g[--2--------2------------0--STRUM--2--STRUM---]
d[--0---------------------0---------2----------]
a[------------------------2---------0----------]
E[------------------------3---------0----------]

   This is my second tab ever. My gf likes this song so I sat down for a few min and 
it. Love u Ryan! If you want to change it go ahead. Tabbed my Isaac Mertens
Tap to rate this tab
# A B C D E F G H I J K L M N O P Q R S T U V W X Y Z