Song name
# A B C D E F G H I J K L M N O P Q R S T U V W X Y Z

Taylor Swift - Fearless tab

Tuning: CAPO 3

...hEy, Im dEnnis mEndez from aNtipolo cIty, mUsician dN..hehek

...tHis is my 5th tablure, for more feedbacks, just comment me in facebook: yukargenz_09@yahoo.com


...eNjoy!


..noWplaYIng: FEARLESS - TAYLOR SWIFT

(SOLO)

e|---------------------------------------------------------7h87------|
B|--2h3333-----------------------33/7\5------------------------------|
G|----------4-4-2-2p02--------24---------------------245-7------754--|
D|------------------------24-----------------------------------------|
A|----------------------5----------------//(slide)-------------------|
E|---------------------------------------//(Slide)-------------------|

(continue)

e|----------------------------------|
B|------13p11p10------------1011~---|
G|----7---------12~------12---------|
D|----------------------------------|
A|----------------------------------|
E|----------------------------------|

..eNjoy! 
Tap to rate this tab
 
# A B C D E F G H I J K L M N O P Q R S T U V W X Y Z