Song name
# A B C D E F G H I J K L M N O P Q R S T U V W X Y Z

Taylor Swift - Superstar tab

INTRO and VERSES

Pattern A

Static fingering between D and A
e|-----2-----------0-----------------|
B|-------3-------2---2---------------|
G|---2-----2---2-------2----(repeat)-|
D|-0---------2-----------2-----------|
A|-----------------------------------|
E|-----------------------------------|


Pattern B
Fingering D, A, Bm, D
e|-----2-----------0----------2-----------0----------------|
B|-------3-------2---2----------3-------2---2--------------|
G|---2-----2---2------2-----4-----4---2-------2--(repeat)-|
D|-0---------2----------2-4---------2-----------2----------|
A|---------------------------------------------------------|
E|---------------------------------------------------------|

Play pattern A four times for the intro and then move into pattern B for the verse - 
still sound fine if you continue playing pattern A throughout the verse if you're lazy or 
not into playing barre chords.
Tap to rate this tab
 
# A B C D E F G H I J K L M N O P Q R S T U V W X Y Z